  0
SECTION
  2
HEADER
  9
$ACADVER
  1
AC1024
  9
$ACADMAINTVER
 70
   226
  9
$DWGCODEPAGE
  3
ANSI_1252
  9
$LASTSAVEDBY
  1
User
  9
$INSBASE
 10
0.0
 20
0.0
 30
0.0
  9
$EXTMIN
 10
42.78718535259739
 20
16.8610262053194
 30
-0.0015258207003583
  9
$EXTMAX
 10
92.39851215417138
 20
81.02849791290422
 30
0.0000000349246037
  9
$LIMMIN
 10
-4.44220704448719
 20
-5.360222120439658
  9
$LIMMAX
 10
91.39604570949506
 20
115.4637810443593
  9
$ORTHOMODE
 70
     0
  9
$REGENMODE
 70
     1
  9
$FILLMODE
 70
     1
  9
$QTEXTMODE
 70
     0
  9
$MIRRTEXT
 70
     0
  9
$LTSCALE
 40
1.0
  9
$ATTMODE
 70
     1
  9
$TEXTSIZE
 40
1.0
  9
$TRACEWID
 40
0.05
  9
$TEXTSTYLE
  7
Logix
  9
$CLAYER
  8
Text
  9
$CELTYPE
  6
ByLayer
  9
$CECOLOR
 62
   256
  9
$CELTSCALE
 40
1.0
  9
$DISPSILH
 70
     0
  9
$DIMSCALE
 40
1.0
  9
$DIMASZ
 40
1.25
  9
$DIMEXO
 40
0.5
  9
$DIMDLI
 40
1.0
  9
$DIMRND
 40
0.0
  9
$DIMDLE
 40
0.0
  9
$DIMEXE
 40
0.5
  9
$DIMTP
 40
0.0
  9
$DIMTM
 40
0.000000001
  9
$DIMTXT
 40
1.0
  9
$DIMCEN
 40
0.5
  9
$DIMTSZ
 40
0.0
  9
$DIMTOL
 70
     0
  9
$DIMLIM
 70
     0
  9
$DIMTIH
 70
     0
  9
$DIMTOH
 70
     0
  9
$DIMSE1
 70
     0
  9
$DIMSE2
 70
     0
  9
$DIMTAD
 70
     0
  9
$DIMZIN
 70
     0
  9
$DIMBLK
  1
ArchTick
  9
$DIMASO
 70
     1
  9
$DIMSHO
 70
     1
  9
$DIMPOST
  1
"\X
  9
$DIMAPOST
  1
mm
  9
$DIMALT
 70
     1
  9
$DIMALTD
 70
     0
  9
$DIMALTF
 40
25.4
  9
$DIMLFAC
 40
1.0
  9
$DIMTOFL
 70
     0
  9
$DIMTVP
 40
0.0
  9
$DIMTIX
 70
     0
  9
$DIMSOXD
 70
     0
  9
$DIMSAH
 70
     0
  9
$DIMBLK1
  1

  9
$DIMBLK2
  1

  9
$DIMSTYLE
  2
FBR
  9
$DIMCLRD
 70
     0
  9
$DIMCLRE
 70
     0
  9
$DIMCLRT
 70
     0
  9
$DIMTFAC
 40
1.0
  9
$DIMGAP
 40
0.3
  9
$DIMJUST
 70
     0
  9
$DIMSD1
 70
     0
  9
$DIMSD2
 70
     0
  9
$DIMTOLJ
 70
     1
  9
$DIMTZIN
 70
     0
  9
$DIMALTZ
 70
     0
  9
$DIMALTTZ
 70
     0
  9
$DIMUPT
 70
     0
  9
$DIMDEC
 70
     4
  9
$DIMTDEC
 70
     4
  9
$DIMALTU
 70
     2
  9
$DIMALTTD
 70
     0
  9
$DIMTXSTY
  7
Logix
  9
$DIMAUNIT
 70
     0
  9
$DIMADEC
 70
     0
  9
$DIMALTRND
 40
0.0
  9
$DIMAZIN
 70
     0
  9
$DIMDSEP
 70
    46
  9
$DIMATFIT
 70
     3
  9
$DIMFRAC
 70
     0
  9
$DIMLDRBLK
  1

  9
$DIMLUNIT
 70
     5
  9
$DIMLWD
 70
    -2
  9
$DIMLWE
 70
    -2
  9
$DIMTMOVE
 70
     2
  9
$DIMFXL
 40
0.18
  9
$DIMFXLON
 70
     0
  9
$DIMJOGANG
 40
0.7853981633974483
  9
$DIMTFILL
 70
     0
  9
$DIMTFILLCLR
 70
     0
  9
$DIMARCSYM
 70
     0
  9
$DIMLTYPE
  6

  9
$DIMLTEX1
  6

  9
$DIMLTEX2
  6

  9
$DIMTXTDIRECTION
 70
     0
  9
$LUNITS
 70
     2
  9
$LUPREC
 70
     4
  9
$SKETCHINC
 40
0.1
  9
$FILLETRAD
 40
0.0
  9
$AUNITS
 70
     0
  9
$AUPREC
 70
     0
  9
$MENU
  1
.
  9
$ELEVATION
 40
0.0
  9
$PELEVATION
 40
0.0
  9
$THICKNESS
 40
0.0
  9
$LIMCHECK
 70
     0
  9
$CHAMFERA
 40
0.0
  9
$CHAMFERB
 40
0.0
  9
$CHAMFERC
 40
0.0
  9
$CHAMFERD
 40
0.0
  9
$SKPOLY
 70
     0
  9
$TDCREATE
 40
2453607.697627315
  9
$TDUCREATE
 40
2453607.989301563
  9
$TDUPDATE
 40
2459662.954270833
  9
$TDUUPDATE
 40
2459663.245937500
  9
$TDINDWG
 40
2.2601592245
  9
$TDUSRTIMER
 40
2.2601592245
  9
$USRTIMER
 70
     1
  9
$ANGBASE
 50
0.0
  9
$ANGDIR
 70
     0
  9
$PDMODE
 70
    35
  9
$PDSIZE
 40
0.0
  9
$PLINEWID
 40
0.0
  9
$SPLFRAME
 70
     0
  9
$SPLINETYPE
 70
     6
  9
$SPLINESEGS
 70
     8
  9
$HANDSEED
  5
1DD47
  9
$SURFTAB1
 70
     6
  9
$SURFTAB2
 70
     6
  9
$SURFTYPE
 70
     6
  9
$SURFU
 70
     6
  9
$SURFV
 70
     6
  9
$UCSBASE
  2

  9
$UCSNAME
  2

  9
$UCSORG
 10
0.0
 20
0.0
 30
0.0
  9
$UCSXDIR
 10
1.0
 20
0.0
 30
0.0
  9
$UCSYDIR
 10
0.0
 20
1.0
 30
0.0
  9
$UCSORTHOREF
  2

  9
$UCSORTHOVIEW
 70
     0
  9
$UCSORGTOP
 10
0.0
 20
0.0
 30
0.0
  9
$UCSORGBOTTOM
 10
0.0
 20
0.0
 30
0.0
  9
$UCSORGLEFT
 10
0.0
 20
0.0
 30
0.0
  9
$UCSORGRIGHT
 10
0.0
 20
0.0
 30
0.0
  9
$UCSORGFRONT
 10
0.0
 20
0.0
 30
0.0
  9
$UCSORGBACK
 10
0.0
 20
0.0
 30
0.0
  9
$PUCSBASE
  2

  9
$PUCSNAME
  2

  9
$PUCSORG
 10
0.0
 20
0.0
 30
0.0
  9
$PUCSXDIR
 10
1.0
 20
0.0
 30
0.0
  9
$PUCSYDIR
 10
0.0
 20
1.0
 30
0.0
  9
$PUCSORTHOREF
  2

  9
$PUCSORTHOVIEW
 70
     0
  9
$PUCSORGTOP
 10
0.0
 20
0.0
 30
0.0
  9
$PUCSORGBOTTOM
 10
0.0
 20
0.0
 30
0.0
  9
$PUCSORGLEFT
 10
0.0
 20
0.0
 30
0.0
  9
$PUCSORGRIGHT
 10
0.0
 20
0.0
 30
0.0
  9
$PUCSORGFRONT
 10
0.0
 20
0.0
 30
0.0
  9
$PUCSORGBACK
 10
0.0
 20
0.0
 30
0.0
  9
$USERI1
 70
     0
  9
$USERI2
 70
     0
  9
$USERI3
 70
     0
  9
$USERI4
 70
     0
  9
$USERI5
 70
     0
  9
$USERR1
 40
0.0
  9
$USERR2
 40
0.0
  9
$USERR3
 40
0.0
  9
$USERR4
 40
0.0
  9
$USERR5
 40
0.0
  9
$WORLDVIEW
 70
     1
  9
$SHADEDGE
 70
     3
  9
$SHADEDIF
 70
    70
  9
$TILEMODE
 70
     1
  9
$MAXACTVP
 70
    64
  9
$PINSBASE
 10
0.0
 20
0.0
 30
0.0
  9
$PLIMCHECK
 70
     0
  9
$PEXTMIN
 10
1.049999952316284
 20
0.7999999523162842
 30
0.0
  9
$PEXTMAX
 10
9.449999570846555
 20
7.199999570846556
 30
0.0
  9
$PLIMMIN
 10
-0.2500002402958907
 20
-0.2499999962453767
  9
$PLIMMAX
 10
10.74999951940821
 20
8.249999763458731
  9
$UNITMODE
 70
     0
  9
$VISRETAIN
 70
     1
  9
$PLINEGEN
 70
     0
  9
$PSLTSCALE
 70
     1
  9
$TREEDEPTH
 70
  3020
  9
$CMLSTYLE
  2
Standard
  9
$CMLJUST
 70
     0
  9
$CMLSCALE
 40
1.0
  9
$PROXYGRAPHICS
 70
     1
  9
$MEASUREMENT
 70
     0
  9
$CELWEIGHT
370
    -1
  9
$ENDCAPS
280
     0
  9
$JOINSTYLE
280
     0
  9
$LWDISPLAY
290
     0
  9
$INSUNITS
 70
     1
  9
$HYPERLINKBASE
  1

  9
$STYLESHEET
  1
acad.ctb
  9
$XEDIT
290
     1
  9
$CEPSNTYPE
380
     0
  9
$PSTYLEMODE
290
     1
  9
$FINGERPRINTGUID
  2
{C454CA31-2497-4A48-9A62-B3C3862ED870}
  9
$VERSIONGUID
  2
{588953C7-1674-4242-BFA9-1AAF240231B3}
  9
$EXTNAMES
290
     1
  9
$PSVPSCALE
 40
0.0
  9
$OLESTARTUP
290
     0
  9
$SORTENTS
280
   127
  9
$INDEXCTL
280
     0
  9
$HIDETEXT
280
     1
  9
$XCLIPFRAME
280
     0
  9
$HALOGAP
280
     0
  9
$OBSCOLOR
 70
   257
  9
$OBSLTYPE
280
     0
  9
$INTERSECTIONDISPLAY
280
     0
  9
$INTERSECTIONCOLOR
 70
   257
  9
$DIMASSOC
280
     2
  9
$PROJECTNAME
  1

  9
$CAMERADISPLAY
290
     0
  9
$LENSLENGTH
 40
50.0
  9
$CAMERAHEIGHT
 40
0.0
  9
$STEPSPERSEC
 40
2.0
  9
$STEPSIZE
 40
6.0
  9
$3DDWFPREC
 40
2.0
  9
$PSOLWIDTH
 40
0.25
  9
$PSOLHEIGHT
 40
4.0
  9
$LOFTANG1
 40
1.570796326794896
  9
$LOFTANG2
 40
1.570796326794896
  9
$LOFTMAG1
 40
0.0
  9
$LOFTMAG2
 40
0.0
  9
$LOFTPARAM
 70
     7
  9
$LOFTNORMALS
280
     1
  9
$LATITUDE
 40
37.795
  9
$LONGITUDE
 40
-122.394
  9
$NORTHDIRECTION
 40
0.0
  9
$TIMEZONE
 70
 -8000
  9
$LIGHTGLYPHDISPLAY
280
     1
  9
$TILEMODELIGHTSYNCH
280
     1
  9
$CMATERIAL
347
1AD54
  9
$SOLIDHIST
280
     1
  9
$SHOWHIST
280
     1
  9
$DWFFRAME
280
     2
  9
$DGNFRAME
280
     0
  9
$REALWORLDSCALE
290
     1
  9
$INTERFERECOLOR
 62
     1
  9
$INTERFEREOBJVS
345
1AD76
  9
$INTERFEREVPVS
346
1AD73
  9
$CSHADOW
280
     0
  9
$SHADOWPLANELOCATION
 40
0.0
  0
ENDSEC
  0
SECTION
  2
CLASSES
  0
CLASS
  1
ACDBDICTIONARYWDFLT
  2
AcDbDictionaryWithDefault
  3
ObjectDBX Classes
 90
        0
 91
        1
280
     0
281
     0
  0
CLASS
  1
DICTIONARYVAR
  2
AcDbDictionaryVar
  3
ObjectDBX Classes
 90
        0
 91
       14
280
     0
281
     0
  0
CLASS
  1
TABLESTYLE
  2
AcDbTableStyle
  3
ObjectDBX Classes
 90
     4095
 91
        3
280
     0
281
     0
  0
CLASS
  1
DIMASSOC
  2
AcDbDimAssoc
  3
"AcDbDimAssoc|Product Desc:     AcDim ARX App For Dimension|Company:          Autodesk, Inc.|WEB Address:      www.autodesk.com"
 90
        0
 91
        1
280
     0
281
     0
  0
CLASS
  1
SORTENTSTABLE
  2
AcDbSortentsTable
  3
ObjectDBX Classes
 90
        0
 91
        3
280
     0
281
     0
  0
CLASS
  1
ACAD_TABLE
  2
AcDbTable
  3
ObjectDBX Classes
 90
     1025
 91
        0
280
     0
281
     1
  0
CLASS
  1
FIELD
  2
AcDbField
  3
ObjectDBX Classes
 90
     1152
 91
        0
280
     0
281
     0
  0
CLASS
  1
FIELDLIST
  2
AcDbFieldList
  3
ObjectDBX Classes
 90
     1152
 91
        1
280
     0
281
     0
  0
CLASS
  1
MATERIAL
  2
AcDbMaterial
  3
ObjectDBX Classes
 90
     1153
 91
        3
280
     0
281
     0
  0
CLASS
  1
VISUALSTYLE
  2
AcDbVisualStyle
  3
ObjectDBX Classes
 90
     4095
 91
       26
280
     0
281
     0
  0
CLASS
  1
SCALE
  2
AcDbScale
  3
ObjectDBX Classes
 90
     1153
 91
       33
280
     0
281
     0
  0
CLASS
  1
MLEADERSTYLE
  2
AcDbMLeaderStyle
  3
ACDB_MLEADERSTYLE_CLASS
 90
     4095
 91
        1
280
     0
281
     0
  0
CLASS
  1
ACAD_EVALUATION_GRAPH
  2
AcDbEvalGraph
  3
ObjectDBX Classes
 90
     1153
 91
        0
280
     0
281
     0
  0
CLASS
  1
ACAECUSTOBJ
  2
AcAeEditorObj
  3
AcAeEditorObj
 90
     1024
 91
        0
280
     0
281
     0
  0
CLASS
  1
ACDB_DYNAMICBLOCKPURGEPREVENTER_VERSION
  2
AcDbDynamicBlockPurgePreventer
  3
ObjectDBX Classes
 90
     1153
 91
        0
280
     0
281
     0
  0
CLASS
  1
CELLSTYLEMAP
  2
AcDbCellStyleMap
  3
ObjectDBX Classes
 90
     1152
 91
        3
280
     0
281
     0
  0
CLASS
  1
ACDBSECTIONVIEWSTYLE
  2
AcDbSectionViewStyle
  3
ObjectDBX Classes
 90
     1025
 91
        1
280
     0
281
     0
  0
CLASS
  1
ACDBDETAILVIEWSTYLE
  2
AcDbDetailViewStyle
  3
ObjectDBX Classes
 90
     1025
 91
        1
280
     0
281
     0
  0
CLASS
  1
ACDB_MTEXTOBJECTCONTEXTDATA_CLASS
  2
AcDbMTextObjectContextData
  3
ObjectDBX Classes
 90
     1153
 91
        1
280
     0
281
     0
  0
ENDSEC
  0
SECTION
  2
TABLES
  0
TABLE
  2
VPORT
  5
8
102
{ACAD_XDICTIONARY
360
1ADF7
102
}
330
0
100
AcDbSymbolTable
 70
     1
  0
VPORT
  5
1AD45
330
8
100
AcDbSymbolTableRecord
100
AcDbViewportTableRecord
  2
*Active
 70
     0
 10
0.0
 20
0.0
 11
1.0
 21
1.0
 12
67.59284875338437
 22
48.94476205911181
 13
0.0
 23
0.0
 14
0.5
 24
0.5
 15
0.5
 25
0.5
 16
0.0
 26
0.0
 36
1.0
 17
0.0
 27
0.0
 37
0.0
 40
46.73766441252026
 41
2.915662650602409
 42
50.0
 43
0.0
 44
0.0
 50
0.0
 51
0.0
 71
     0
 72
  1000
 73
     1
 74
     3
 75
     0
 76
     0
 77
     0
 78
     0
281
     0
 65
     1
110
0.0
120
0.0
130
0.0
111
1.0
121
0.0
131
0.0
112
0.0
122
1.0
132
0.0
 79
     0
146
0.0
348
1AD72
 60
     3
 61
     5
292
     1
282
     1
141
0.0
142
0.0
 63
   250
421
  3355443
1001
ACAD_NAV_VCDISPLAY
1070
     3
  0
ENDTAB
  0
TABLE
  2
LTYPE
  5
5
330
0
100
AcDbSymbolTable
 70
     4
  0
LTYPE
  5
14
330
5
100
AcDbSymbolTableRecord
100
AcDbLinetypeTableRecord
  2
ByBlock
 70
     0
  3

 72
    65
 73
     0
 40
0.0
  0
LTYPE
  5
15
330
5
100
AcDbSymbolTableRecord
100
AcDbLinetypeTableRecord
  2
ByLayer
 70
     0
  3

 72
    65
 73
     0
 40
0.0
  0
LTYPE
  5
16
330
5
100
AcDbSymbolTableRecord
100
AcDbLinetypeTableRecord
  2
Continuous
 70
     0
  3
Solid line
 72
    65
 73
     0
 40
0.0
  0
LTYPE
  5
7BE
330
5
100
AcDbSymbolTableRecord
100
AcDbLinetypeTableRecord
  2
HIDDEN2
 70
     0
  3
Hidden (.5x) _ _ _ _ _ _ _ _ _ _ _ _ _ _ _ _ _
 72
    65
 73
     2
 40
0.1875
 49
0.125
 74
     0
 49
-0.0625
 74
     0
  0
LTYPE
  5
144B
330
5
100
AcDbSymbolTableRecord
100
AcDbLinetypeTableRecord
  2
HIDDEN
 70
     0
  3
Hidden __ __ __ __ __ __ __ __ __ __ __ __ __ _
 72
    65
 73
     2
 40
0.375
 49
0.25
 74
     0
 49
-0.125
 74
     0
  0
LTYPE
  5
1AF9A
330
5
100
AcDbSymbolTableRecord
100
AcDbLinetypeTableRecord
  2
HIDDENX2
 70
     0
  3
Hidden (2x) ____ ____ ____ ____ ____ ____ ____
 72
    65
 73
     2
 40
0.75
 49
0.5
 74
     0
 49
-0.25
 74
     0
  0
ENDTAB
  0
TABLE
  2
LAYER
  5
2
102
{ACAD_XDICTIONARY
360
8D
102
}
330
0
100
AcDbSymbolTable
 70
    24
  0
LAYER
  5
10
102
{ACAD_XDICTIONARY
360
1ADC7
102
}
330
2
100
AcDbSymbolTableRecord
100
AcDbLayerTableRecord
  2
0
 70
     0
 62
     7
  6
Continuous
370
    -3
390
F
347
1AD64
  0
LAYER
  5
8B
102
{ACAD_XDICTIONARY
360
1ADC9
102
}
330
2
100
AcDbSymbolTableRecord
100
AcDbLayerTableRecord
  2
Block
 70
     0
 62
     7
  6
Continuous
370
    30
390
F
347
1AD64
1001
AcAecLayerStandard
1000

1000

  0
LAYER
  5
413
102
{ACAD_XDICTIONARY
360
1ADCB
102
}
330
2
100
AcDbSymbolTableRecord
100
AcDbLayerTableRecord
  2
Knobs
 70
     0
 62
     2
  6
Continuous
370
    -3
390
F
347
1AD64
1001
AcAecLayerStandard
1000

1000

  0
LAYER
  5
770
102
{ACAD_XDICTIONARY
360
1ADCD
102
}
330
2
100
AcDbSymbolTableRecord
100
AcDbLayerTableRecord
  2
Web
 70
     0
 62
     6
  6
Continuous
370
    -3
390
F
347
1AD64
1001
AcAecLayerStandard
1000

1000

  0
LAYER
  5
E05
102
{ACAD_XDICTIONARY
360
1ADCF
102
}
330
2
100
AcDbSymbolTableRecord
100
AcDbLayerTableRecord
  2
Markers
 70
     0
 62
     2
  6
Continuous
370
    -3
390
F
347
1AD64
1001
AcAecLayerStandard
1000

1000

  0
LAYER
  5
13AF
102
{ACAD_XDICTIONARY
360
1ADD1
102
}
330
2
100
AcDbSymbolTableRecord
100
AcDbLayerTableRecord
  2
Dim
 70
     0
 62
     7
  6
Continuous
370
    25
390
F
347
1AD64
1001
AcAecLayerStandard
1000

1000

  0
LAYER
  5
13CA
330
2
100
AcDbSymbolTableRecord
100
AcDbLayerTableRecord
  2
DEFPOINTS
 70
     0
 62
    -7
  6
Continuous
290
     0
370
    -3
390
F
347
1AD64
  0
LAYER
  5
32CE
102
{ACAD_XDICTIONARY
360
1ADD3
102
}
330
2
100
AcDbSymbolTableRecord
100
AcDbLayerTableRecord
  2
Text
 70
     0
 62
     7
  6
Continuous
370
    -3
390
F
347
1AD64
1001
AcAecLayerStandard
1000

1000

  0
LAYER
  5
7B7D
102
{ACAD_XDICTIONARY
360
1ADD5
102
}
330
2
100
AcDbSymbolTableRecord
100
AcDbLayerTableRecord
  2
RIBS
 70
     0
 62
     6
  6
Continuous
370
    -3
390
F
347
1AD64
  0
LAYER
  5
11F4A
102
{ACAD_XDICTIONARY
360
1ADD7
102
}
330
2
100
AcDbSymbolTableRecord
100
AcDbLayerTableRecord
  2
Conc
 70
     0
 62
   251
  6
Continuous
370
    -3
390
F
347
1AD64
1001
AcAecLayerStandard
1000

1000

  0
LAYER
  5
121C7
102
{ACAD_XDICTIONARY
360
1ADD9
102
}
330
2
100
AcDbSymbolTableRecord
100
AcDbLayerTableRecord
  2
Drywall
 70
     0
 62
     7
  6
Continuous
370
    -3
390
F
347
1AD64
1001
AcAecLayerStandard
1000

1000

  0
LAYER
  5
121CA
102
{ACAD_XDICTIONARY
360
1ADDB
102
}
330
2
100
AcDbSymbolTableRecord
100
AcDbLayerTableRecord
  2
ExtWood
 70
     0
 62
    11
  6
Continuous
370
    -3
390
F
347
1AD64
1001
AcAecLayerStandard
1000

1000

  0
LAYER
  5
121CF
102
{ACAD_XDICTIONARY
360
1ADDD
102
}
330
2
100
AcDbSymbolTableRecord
100
AcDbLayerTableRecord
  2
Sills
 70
     0
 62
    40
  6
Continuous
370
    -3
390
F
347
1AD64
1001
AcAecLayerStandard
1000

1000

  0
LAYER
  5
121E2
102
{ACAD_XDICTIONARY
360
1ADDF
102
}
330
2
100
AcDbSymbolTableRecord
100
AcDbLayerTableRecord
  2
WoodJoistStud
 70
     0
 62
    46
  6
Continuous
370
    25
390
F
347
1AD64
1001
AcAecLayerStandard
1000

1000

  0
LAYER
  5
121F7
102
{ACAD_XDICTIONARY
360
1ADE1
102
}
330
2
100
AcDbSymbolTableRecord
100
AcDbLayerTableRecord
  2
Siding
 70
     0
 62
     5
  6
Continuous
370
    -3
390
F
347
1AD64
1001
AcAecLayerStandard
1000

1000

  0
LAYER
  5
12238
102
{ACAD_XDICTIONARY
360
1ADE3
102
}
330
2
100
AcDbSymbolTableRecord
100
AcDbLayerTableRecord
  2
SteelBars
 70
     0
 62
     5
  6
Continuous
370
    -3
390
F
347
1AD64
1001
AcAecLayerStandard
1000

1000

  0
LAYER
  5
12273
102
{ACAD_XDICTIONARY
360
1ADE5
102
}
330
2
100
AcDbSymbolTableRecord
100
AcDbLayerTableRecord
  2
SOIL
 70
     0
 62
     3
  6
Continuous
370
    -3
390
F
347
1AD64
  0
LAYER
  5
1233D
102
{ACAD_XDICTIONARY
360
1ADE7
102
}
330
2
100
AcDbSymbolTableRecord
100
AcDbLayerTableRecord
  2
Membranes
 70
     0
 62
     1
  6
Continuous
370
    -3
390
F
347
1AD64
1001
AcAecLayerStandard
1000

1000

  0
LAYER
  5
1A6BC
102
{ACAD_XDICTIONARY
360
1ADE9
102
}
330
2
100
AcDbSymbolTableRecord
100
AcDbLayerTableRecord
  2
D
 70
     0
 62
     7
  6
Continuous
370
    -3
390
F
347
1AD64
  0
LAYER
  5
1AC4E
102
{ACAD_XDICTIONARY
360
1ADEB
102
}
330
2
100
AcDbSymbolTableRecord
100
AcDbLayerTableRecord
  2
hatch
 70
     0
 62
     1
  6
Continuous
370
    30
390
F
347
1AD64
1001
AcAecLayerStandard
1000

1000

  0
LAYER
  5
1AF9B
330
2
100
AcDbSymbolTableRecord
100
AcDbLayerTableRecord
  2
Webs
 70
     0
 62
     6
  6
HIDDEN
370
    -3
390
F
347
1AD64
  0
LAYER
  5
1C0DB
330
2
100
AcDbSymbolTableRecord
100
AcDbLayerTableRecord
  2
FibreInsul
 70
     0
 62
   241
  6
Continuous
370
    -3
390
F
347
1AD64
1001
AcAecLayerStandard
1000

1000

  0
LAYER
  5
1C18F
102
{ACAD_XDICTIONARY
360
1C190
102
}
330
2
100
AcDbSymbolTableRecord
100
AcDbLayerTableRecord
  2
DIMENSION
 70
     0
 62
     7
  6
Continuous
370
    -3
390
F
347
1AD64
  0
LAYER
  5
1DC8B
102
{ACAD_XDICTIONARY
360
1DC8C
102
}
330
2
100
AcDbSymbolTableRecord
100
AcDbLayerTableRecord
  2
Title Block
 70
     0
 62
     7
  6
Continuous
370
    -3
390
F
347
1AD64
1001
AcAecLayerStandard
1000

1000
Use for the title block on the layout tab (paper space)
  0
ENDTAB
  0
TABLE
  2
STYLE
  5
3
330
0
100
AcDbSymbolTable
 70
     6
  0
STYLE
  5
11
330
3
100
AcDbSymbolTableRecord
100
AcDbTextStyleTableRecord
  2
Standard
 70
     0
 40
0.0
 41
1.0
 50
0.0
 71
     0
 42
0.2
  3
sanss___.ttf
  4

1001
ACAD
1000
SansSerif
1071
      514
  0
STYLE
  5
7BD
330
3
100
AcDbSymbolTableRecord
100
AcDbTextStyleTableRecord
  2

 70
     1
 40
0.0
 41
1.0
 50
0.0
 71
     0
 42
0.2
  3
ltypeshp.shx
  4

  0
STYLE
  5
1A22
330
3
100
AcDbSymbolTableRecord
100
AcDbTextStyleTableRecord
  2
Logix
 70
     0
 40
0.0
 41
1.0
 50
0.0
 71
     0
 42
1.0
  3
romans.shx
  4

  0
STYLE
  5
36AA
330
3
100
AcDbSymbolTableRecord
100
AcDbTextStyleTableRecord
  2
Arial
 70
     0
 40
0.0
 41
1.0
 50
0.0
 71
     0
 42
0.2
  3
arial.ttf
  4

1001
ACAD
1000
Arial
1071
       34
  0
STYLE
  5
7B7E
330
3
100
AcDbSymbolTableRecord
100
AcDbTextStyleTableRecord
  2
TITLE
 70
     0
 40
0.0
 41
1.0
 50
0.0
 71
     0
 42
1.25
  3
arial.ttf
  4

1001
ACAD
1000
Arial
1071
       34
  0
STYLE
  5
12274
330
3
100
AcDbSymbolTableRecord
100
AcDbTextStyleTableRecord
  2
ATTR
 70
     0
 40
0.008825683324628
 41
0.8
 50
0.0
 71
     0
 42
0.008825683324628
  3
romans.shx
  4

  0
ENDTAB
  0
TABLE
  2
VIEW
  5
6
330
0
100
AcDbSymbolTable
 70
     0
  0
ENDTAB
  0
TABLE
  2
UCS
  5
7
330
0
100
AcDbSymbolTable
 70
     0
  0
ENDTAB
  0
TABLE
  2
APPID
  5
9
330
0
100
AcDbSymbolTable
 70
    21
  0
APPID
  5
12
330
9
100
AcDbSymbolTableRecord
100
AcDbRegAppTableRecord
  2
ACAD
 70
     0
  0
APPID
  5
8C
330
9
100
AcDbSymbolTableRecord
100
AcDbRegAppTableRecord
  2
AcAecLayerStandard
 70
     0
  0
APPID
  5
93
330
9
100
AcDbSymbolTableRecord
100
AcDbRegAppTableRecord
  2
ACAD_EXEMPT_FROM_CAD_STANDARDS
 70
     0
  0
APPID
  5
B8
330
9
100
AcDbSymbolTableRecord
100
AcDbRegAppTableRecord
  2
ACAD_DSTYLE_DIMTEXT_FILL
 70
     0
  0
APPID
  5
B9
330
9
100
AcDbSymbolTableRecord
100
AcDbRegAppTableRecord
  2
ACAD_DSTYLE_DIMEXT_LENGTH
 70
     0
  0
APPID
  5
BA
330
9
100
AcDbSymbolTableRecord
100
AcDbRegAppTableRecord
  2
ACAD_DSTYLE_DIMEXT_ENABLED
 70
     0
  0
APPID
  5
BB
330
9
100
AcDbSymbolTableRecord
100
AcDbRegAppTableRecord
  2
ACAD_DSTYLE_DIM_LINETYPE
 70
     0
  0
APPID
  5
BC
330
9
100
AcDbSymbolTableRecord
100
AcDbRegAppTableRecord
  2
ACAD_DSTYLE_DIM_EXT1_LINETYPE
 70
     0
  0
APPID
  5
BD
330
9
100
AcDbSymbolTableRecord
100
AcDbRegAppTableRecord
  2
ACAD_DSTYLE_DIM_EXT2_LINETYPE
 70
     0
  0
APPID
  5
1D9
330
9
100
AcDbSymbolTableRecord
100
AcDbRegAppTableRecord
  2
ACAD_DSTYLE_DIMJOGGED_JOGANGLE_SYMBOL
 70
     0
  0
APPID
  5
26D
330
9
100
AcDbSymbolTableRecord
100
AcDbRegAppTableRecord
  2
ACAD_DSTYLE_DIMARC_LENGTH_SYMBOL
 70
     0
  0
APPID
  5
11EF9
330
9
100
AcDbSymbolTableRecord
100
AcDbRegAppTableRecord
  2
ACAD_PSEXT
 70
     0
  0
APPID
  5
1A4E6
330
9
100
AcDbSymbolTableRecord
100
AcDbRegAppTableRecord
  2
DCO15
 70
     0
  0
APPID
  5
1ADA1
330
9
100
AcDbSymbolTableRecord
100
AcDbRegAppTableRecord
  2
ACAD_MLEADERVER
 70
     0
  0
APPID
  5
1ADB2
330
9
100
AcDbSymbolTableRecord
100
AcDbRegAppTableRecord
  2
ACAUTHENVIRON
 70
     0
  0
APPID
  5
1ADB6
330
9
100
AcDbSymbolTableRecord
100
AcDbRegAppTableRecord
  2
AcDbDynamicBlockTrueName
 70
     0
  0
APPID
  5
1ADB7
330
9
100
AcDbSymbolTableRecord
100
AcDbRegAppTableRecord
  2
AcDbDynamicBlockGUID
 70
     0
  0
APPID
  5
1ADB9
330
9
100
AcDbSymbolTableRecord
100
AcDbRegAppTableRecord
  2
AcDbBlockRepETag
 70
     0
  0
APPID
  5
1DC88
330
9
100
AcDbSymbolTableRecord
100
AcDbRegAppTableRecord
  2
Acad_TC
 70
     0
  0
APPID
  5
1DC8D
330
9
100
AcDbSymbolTableRecord
100
AcDbRegAppTableRecord
  2
ACAD_NAV_VCDISPLAY
 70
     0
  0
APPID
  5
1DC8E
330
9
100
AcDbSymbolTableRecord
100
AcDbRegAppTableRecord
  2
AcadAnnotative
 70
     0
  0
ENDTAB
  0
TABLE
  2
DIMSTYLE
  5
A
330
0
100
AcDbSymbolTable
 70
    10
100
AcDbDimStyleTable
 71
     3
340
8CB7
340
272
340
27
  0
DIMSTYLE
105
27
330
A
100
AcDbSymbolTableRecord
100
AcDbDimStyleTableRecord
  2
Standard
 70
     0
340
11
  0
DIMSTYLE
105
272
330
A
100
AcDbSymbolTableRecord
100
AcDbDimStyleTableRecord
  2
$RECOVER_050824232520-0
 70
     0
  3
"
  4
mm
 41
0.75
 42
0.5
 44
0.5
 49
0.18
 73
     0
140
0.75
141
0.5
170
     1
277
     5
340
1A22
342
1723
1001
ACAD_DSTYLE_DIMJOGGED_JOGANGLE_SYMBOL
1070
   384
1040
0.7853981633974483
  0
DIMSTYLE
105
7B7F
330
A
100
AcDbSymbolTableRecord
100
AcDbDimStyleTableRecord
  2
neil
 70
     0
  3
"\X
  4
mm
 40
7.0
 41
0.15
 42
0.06
 44
0.0599999999999999
 45
0.0005
 73
     0
 74
     0
 77
     1
 78
     4
 79
     1
140
0.15
141
0.0
144
0.666666666666667
147
0.06
170
     1
171
     0
271
     3
272
     3
274
     0
276
     1
277
     5
340
11
341
1723
342
1723
  0
DIMSTYLE
105
8CB7
330
A
100
AcDbSymbolTableRecord
100
AcDbDimStyleTableRecord
  2
FBR
 70
     0
  3
"\X
  4
mm
 41
1.25
 42
0.5
 43
1.0
 44
0.5
 48
0.000000001
 49
0.5
 73
     0
 74
     0
140
1.0
141
0.5
147
0.3
170
     1
171
     0
274
     0
277
     5
279
     2
340
1A22
342
1723
1001
ACAD_DSTYLE_DIMJOGGED_JOGANGLE_SYMBOL
1070
   384
1040
0.7853981633974483
  0
DIMSTYLE
105
12275
330
A
100
AcDbSymbolTableRecord
100
AcDbDimStyleTableRecord
  2
LEADER-LARGETEXT
 70
     0
 41
1.0
 43
0.375
 44
0.1875
140
1.5
141
0.0625
147
0.0625
276
     2
277
     4
340
11
  0
DIMSTYLE
105
1A6BD
330
A
100
AcDbSymbolTableRecord
100
AcDbDimStyleTableRecord
  2
AM_ANSI$4
 70
     0
  4
mm
 41
0.1
 42
0.05
 43
0.5
 44
0.1
 47
0.1
 48
0.1
 78
     7
 79
     2
140
0.12
141
0.0
146
0.71
147
0.06
176
   256
177
   256
178
     2
274
     4
288
     1
289
     0
340
11
371
    -1
372
    -1
  0
DIMSTYLE
105
1A6BE
330
A
100
AcDbSymbolTableRecord
100
AcDbDimStyleTableRecord
  2
AM_ANSI$7
 70
     0
  4
mm
 41
0.1
 42
0.05
 43
0.5
 44
0.1
 47
0.1
 48
0.1
 78
     7
 79
     2
140
0.24
141
0.0
146
0.71
147
0.06
176
   256
177
   256
178
     2
274
     4
340
11
371
    -1
372
    -1
  0
DIMSTYLE
105
1A6BF
330
A
100
AcDbSymbolTableRecord
100
AcDbDimStyleTableRecord
  2
AM_ANSI$SF
 70
     0
  4
mm
 41
0.1
 42
0.05
 43
0.5
 44
0.1
 47
0.1
 48
0.1
 75
     1
 76
     1
 78
     7
 79
     2
140
0.12
141
0.0
146
0.71
147
0.06
176
   256
177
   256
178
     2
274
     4
340
11
371
    -1
372
    -1
  0
DIMSTYLE
105
1A6C0
330
A
100
AcDbSymbolTableRecord
100
AcDbDimStyleTableRecord
  2
AM_ANSI$SH
 70
     0
  4
mm
 41
0.1
 42
0.05
 43
0.5
 44
0.1
 47
0.1
 48
0.1
 75
     1
 76
     1
 78
     7
 79
     2
140
0.12
141
0.0
146
0.71
147
0.06
173
     1
176
   256
177
   256
178
     2
274
     4
340
11
343
1A6B7
371
    -1
372
    -1
  0
DIMSTYLE
105
1A94D
330
A
100
AcDbSymbolTableRecord
100
AcDbDimStyleTableRecord
  2
AM_ANSI
 70
     0
  4
mm
 41
0.1
 42
0.05
 43
0.5
 44
0.1
 47
0.1
 48
0.1
 78
     7
 79
     2
140
0.12
141
0.0
146
0.71
147
0.06
176
   256
177
   256
178
     2
274
     4
340
11
371
    -1
372
    -1
  0
ENDTAB
  0
TABLE
  2
BLOCK_RECORD
  5
1
330
0
100
AcDbSymbolTable
 70
     9
  0
BLOCK_RECORD
  5
1F
102
{ACAD_XDICTIONARY
360
39A
102
}
330
1
100
AcDbSymbolTableRecord
100
AcDbBlockTableRecord
  2
*Model_Space
340
22
 70
     0
280
     1
281
     0
  0
BLOCK_RECORD
  5
5D
330
1
100
AcDbSymbolTableRecord
100
AcDbBlockTableRecord
  2
*Paper_Space
340
5E
 70
     0
280
     1
281
     0
  0
BLOCK_RECORD
  5
58
330
1
100
AcDbSymbolTableRecord
100
AcDbBlockTableRecord
  2
*Paper_Space0
340
59
 70
     0
280
     1
281
     0
  0
BLOCK_RECORD
  5
13CB
330
1
100
AcDbSymbolTableRecord
100
AcDbBlockTableRecord
  2
BRKLINE
340
0
 70
     0
280
     1
281
     0
  0
BLOCK_RECORD
  5
1723
330
1
100
AcDbSymbolTableRecord
100
AcDbBlockTableRecord
  2
_ArchTick
340
0
 70
     0
280
     1
281
     0
  0
BLOCK_RECORD
  5
7B6B
330
1
100
AcDbSymbolTableRecord
100
AcDbBlockTableRecord
  2
logo
340
0
310
2800000020000000200000000100080000000000000400000000000000000000000000000000000000000000000080000080000000808000800000008000800080800000C0C0C000C0DCC000F0CAA6000020400000206000002080000020A0000020C0000020E00000400000004020000040400000406000004080000040A0
310
000040C0000040E00000600000006020000060400000606000006080000060A0000060C0000060E00000800000008020000080400000806000008080000080A0000080C0000080E00000A0000000A0200000A0400000A0600000A0800000A0A00000A0C00000A0E00000C0000000C0200000C0400000C0600000C0800000C0
310
A00000C0C00000C0E00000E0000000E0200000E0400000E0600000E0800000E0A00000E0C00000E0E00040000000400020004000400040006000400080004000A0004000C0004000E00040200000402020004020400040206000402080004020A0004020C0004020E000404000004040200040404000404060004040800040
310
40A0004040C0004040E00040600000406020004060400040606000406080004060A0004060C0004060E00040800000408020004080400040806000408080004080A0004080C0004080E00040A0000040A0200040A0400040A0600040A0800040A0A00040A0C00040A0E00040C0000040C0200040C0400040C0600040C08000
310
40C0A00040C0C00040C0E00040E0000040E0200040E0400040E0600040E0800040E0A00040E0C00040E0E00080000000800020008000400080006000800080008000A0008000C0008000E00080200000802020008020400080206000802080008020A0008020C0008020E00080400000804020008040400080406000804080
310
008040A0008040C0008040E00080600000806020008060400080606000806080008060A0008060C0008060E00080800000808020008080400080806000808080008080A0008080C0008080E00080A0000080A0200080A0400080A0600080A0800080A0A00080A0C00080A0E00080C0000080C0200080C0400080C0600080C0
310
800080C0A00080C0C00080C0E00080E0000080E0200080E0400080E0600080E0800080E0A00080E0C00080E0E000C0000000C0002000C0004000C0006000C0008000C000A000C000C000C000E000C0200000C0202000C0204000C0206000C0208000C020A000C020C000C020E000C0400000C0402000C0404000C0406000C0
310
408000C040A000C040C000C040E000C0600000C0602000C0604000C0606000C0608000C060A000C060C000C060E000C0800000C0802000C0804000C0806000C0808000C080A000C080C000C080E000C0A00000C0A02000C0A04000C0A06000C0A08000C0A0A000C0A0C000C0A0E000C0C00000C0C02000C0C04000C0C06000
310
C0C08000C0C0A000F0FBFF00A4A0A000808080000000FF0000FF000000FFFF00FF000000FF00FF00FFFF0000FFFFFF0000000000000000000000000000000000000000000000000000000000000000000000000000000000000000000000000000000000000000000000000000000000000000000000000000000000000000
310
00000000000000000000000000000000000000000000000000000000000000000000000000000000000000000000000000000000000000000000000000000000000000000000000000000000000000000000000000000000000000000000000000000000000000000000000000000000000000000000000000000000000000
310
00000000000000000000000000000000000000000000000000000000000000000000000000000000000000000000000000000000000000000000000000000000000000000000000000000000000000000000000000000000000000000000000000000000000000000000000000000000000000000000000000000000000000
310
000000000000000000000000000000000000000000FFFFFFFFFFFFFFFFFFFFFFFFFFFFFFFFFFFFFFFFFFFFFFFFFFFFFF0000000000FFF9F9FFFFFFFFFFFFFFFFFFFFFFFFFFFFFFFFFFFFFFFFFFFFFFFF0000000000FFF9F9FFFFFFFFFFFFFFFFFF0000FFFFFFFFFFFFFFFF0000FFFF000000000000FFFFFFFFFFFFFFFFFFFF
310
FF00FFFFFFFFFFFFFFFF00FFFFFFFF000000000000000000FFFF0000FFFF000000FFFFFF00FFFFFFFFFF00FFFF00FF000000000000000000FFFF000000FFFF0000FFFFFFFFFFFFFFFFFF0000FFFF00000000000000000000FFFF000000FFFFFFFFFF00FFFFFFFFFFFFFF00FFFFFFFFFFFFFF000000000000FFFF00000000FF
310
FFFF000000FFFFFFFFFFFFFFFF00FFFFFFFFFF00000000000000000000000000000000000000000000F9F9000000000000000000000000000000000000000000000000000000000000F9F900000000000000000000000000000000000000000000000000000000000000000000000000000000000000000000000000000000
310
00000000000000000000000000000000000000000000000000000000000000000000000000000000000000000000000000000000000000000000000000000000000000000000000000000000000000000000000000000000000000000000000000000000000000000000000000000000000000000000000000000000000000
310
00000000000000000000000000000000000000000000000000000000000000000000000000000000000000000000000000000000000000000000000000000000000000000000000000000000000000000000000000000000000000000000000000000000000000000000000000000000000000000000000000000000000000
310
0000000000000000000000000000000000000000000000000000000000000000000000000000000000000000000000000000000000000000
102
{BLKREFS
331
1ADAE
102
}
 70
     1
280
     1
281
     0
  0
BLOCK_RECORD
  5
7B76
102
{ACAD_XDICTIONARY
360
1ADB3
102
}
330
1
100
AcDbSymbolTableRecord
100
AcDbBlockTableRecord
  2
logo1
340
0
310
2800000020000000200000000100080000000000000400000000000000000000000000000000000000000000000080000080000000808000800000008000800080800000C0C0C000C0DCC000F0CAA6000020400000206000002080000020A0000020C0000020E00000400000004020000040400000406000004080000040A0
310
000040C0000040E00000600000006020000060400000606000006080000060A0000060C0000060E00000800000008020000080400000806000008080000080A0000080C0000080E00000A0000000A0200000A0400000A0600000A0800000A0A00000A0C00000A0E00000C0000000C0200000C0400000C0600000C0800000C0
310
A00000C0C00000C0E00000E0000000E0200000E0400000E0600000E0800000E0A00000E0C00000E0E00040000000400020004000400040006000400080004000A0004000C0004000E00040200000402020004020400040206000402080004020A0004020C0004020E000404000004040200040404000404060004040800040
310
40A0004040C0004040E00040600000406020004060400040606000406080004060A0004060C0004060E00040800000408020004080400040806000408080004080A0004080C0004080E00040A0000040A0200040A0400040A0600040A0800040A0A00040A0C00040A0E00040C0000040C0200040C0400040C0600040C08000
310
40C0A00040C0C00040C0E00040E0000040E0200040E0400040E0600040E0800040E0A00040E0C00040E0E00080000000800020008000400080006000800080008000A0008000C0008000E00080200000802020008020400080206000802080008020A0008020C0008020E00080400000804020008040400080406000804080
310
008040A0008040C0008040E00080600000806020008060400080606000806080008060A0008060C0008060E00080800000808020008080400080806000808080008080A0008080C0008080E00080A0000080A0200080A0400080A0600080A0800080A0A00080A0C00080A0E00080C0000080C0200080C0400080C0600080C0
310
800080C0A00080C0C00080C0E00080E0000080E0200080E0400080E0600080E0800080E0A00080E0C00080E0E000C0000000C0002000C0004000C0006000C0008000C000A000C000C000C000E000C0200000C0202000C0204000C0206000C0208000C020A000C020C000C020E000C0400000C0402000C0404000C0406000C0
310
408000C040A000C040C000C040E000C0600000C0602000C0604000C0606000C0608000C060A000C060C000C060E000C0800000C0802000C0804000C0806000C0808000C080A000C080C000C080E000C0A00000C0A02000C0A04000C0A06000C0A08000C0A0A000C0A0C000C0A0E000C0C00000C0C02000C0C04000C0C06000
310
C0C08000C0C0A000F0FBFF00A4A0A000808080000000FF0000FF000000FFFF00FF000000FF00FF00FFFF0000FFFFFF0000000000000000000000000000000000000000000000000000000000000000000000000000000000000000000000000000000000000000000000000000000000000000000000000000000000000000
310
00000000000000000000000000000000000000000000000000000000000000000000000000000000000000000000000000000000000000000000000000000000000000000000000000000000000000000000000000000000000000000000000000000000000000000000000000000000000000000000000000000000000000
310
00000000000000000000000000000000000000000000000000000000000000000000000000000000000000000000000000000000000000000000000000000000000000000000000000000000000000000000000000000000000000000000000000000000000000000000000000000000000000000000000000000000000000
310
0000000000000000000000000000000000000000000000000000000000000000000000000000000000FFFFFFFFFFFFFFFF0000000000000000FFFFFFFFFFFFFFFFFFFFFFFFFFFFFFFFFFFFFFFFFFFFFFFF0000000000000000FFFFFFFFFF00FFFFFFFFFF00FFFFFFFFFFFFFFFF000000000000000000000000FFFFFFFFFFFF
310
FFFFFFFFFFFFFFFFFFFFFFFF0000000000000000000000000000F9F9FFFFFFFFFFFFFFFFFFFFFFFFFFFFFFFF0000000000000000000000000000FFFFFFFFFFFFFFFFFFFFFFFFFFFF00FFFFFF000000000000000000000000000000FFFF00FFFF00FFFFFFFFFFFFFF00FFFF00000000000000000000000000000000FFFF00FF
310
FFFF00FFFFFFFFFFFF00FF00FFFF0000000000000000000000000000FFFF00FFFFFFFF00FFFFFFF9F9FFFFFFFFFF00000000000000000000000000000000000000000000000000F9F9000000000000000000000000000000000000000000000000000000000000000000000000000000000000000000000000000000000000
310
00000000000000000000000000000000000000000000000000000000000000000000000000000000000000000000000000000000000000000000000000000000000000000000000000000000000000000000000000000000000000000000000000000000000000000000000000000000000000000000000000000000000000
310
00000000000000000000000000000000000000000000000000000000000000000000000000000000000000000000000000000000000000000000000000000000000000000000000000000000000000000000000000000000000000000000000000000000000000000000000000000000000000000000000000000000000000
310
0000000000000000000000000000000000000000000000000000000000000000000000000000000000000000000000000000000000000000
 70
     1
280
     1
281
     0
1001
AcDbDynamicBlockGUID
1000
{F1A9BB13-2D0A-4D0B-8327-A39B0A8DEDCE}
1001
AcDbBlockRepETag
1070
     1
1071
        4
  0
BLOCK_RECORD
  5
12248
330
1
100
AcDbSymbolTableRecord
100
AcDbBlockTableRecord
  2
NUT_HEX_0D5_SV
340
0
310
2800000020000000200000000100040000000000000200000000000000000000000000000000000000000000000080000080000000808000800000008000800080800000C0C0C000808080000000FF0000FF000000FFFF00FF000000FF00FF00FFFF0000FFFFFF00FFFFFFFFF00000000000000FFFFFFFFFFFFFFFFF0FFFFF
310
FFFFFFFF0FFFFFFFFFFFFFFFFF0FFFFFFFFFFFFF0FFFFFFFFFFFFFFFFF0FFFFFFFFFFFFF0FFFFFFFFFFFFFFFF00FFFFFFFFFFFFF0FFFFFFFFFFFFFFFF00FFFFFFFFFFFFF00FFFFFFFFFFFFFFF00FFFFFFFFFFFFF00FFFFFFFFFFFFFFF00FFFFFFFFFFFFF00FFFFFFFFFFFFFFF00000000000000000FFFFFFFFFFFFFFF00FFF
310
FFFFFFFFFF00FFFFFFFFFFFFFFF00FFFFFFFFFFFFF00FFFFFFFFFFFFFFF00FFFFFFFFFFFFF00FFFFFFFFFFFFFFF00FFFFFFFFFFFFF00FFFFFFFFFFFFFFF00FFFFFFFFFFFFF00FFFFFFFFFFFFFFF00FFFFFFFFFFFFF00FFFFFFFFFFFFFFF00FFFFFFFFFFFFF00FFFFFFFFFFFFFFF00FFFFFFFFFFFFF00FFFFFFFFFFFFFFF00F
310
FFFFFFFFFFFF00FFFFFFFFFFFFFFF00FFFFFFFFFFFFF00FFFFFFFFFFFFFFF00FFFFFFFFFFFFF00FFFFFFFFFFFFFFF00FFFFFFFFFFFFF00FFFFFFFFFFFFFFF00FFFFFFFFFFFFF00FFFFFFFFFFFFFFF00FFFFFFFFFFFFF00FFFFFFFFFFFFFFF00000000000000000FFFFFFFFFFFFFFF00FFFFFFFFFFFFF00FFFFFFFFFFFFFFF0
310
0FFFFFFFFFFFFF00FFFFFFFFFFFFFFF00FFFFFFFFFFFFF00FFFFFFFFFFFFFFFF0FFFFFFFFFFFFF00FFFFFFFFFFFFFFFF0FFFFFFFFFFFFF0FFFFFFFFFFFFFFFFF0FFFFFFFFFFFFF0FFFFFFFFFFFFFFFFF0FFFFFFFFFFFFF0FFFFFFFFFFFFFFFFF00000000000000FFFFFFFFFF
102
{BLKREFS
331
1D681
331
1D685
102
}
 70
     0
280
     1
281
     0
  0
BLOCK_RECORD
  5
1A6B7
330
1
100
AcDbSymbolTableRecord
100
AcDbBlockTableRecord
  2
GENAXEH
340
0
 70
     0
280
     1
281
     0
  0
BLOCK_RECORD
  5
1BA69
102
{ACAD_XDICTIONARY
360
1BBBB
102
}
330
1
100
AcDbSymbolTableRecord
100
AcDbBlockTableRecord
  2
A$C6C89757F
340
0
 70
     1
280
     1
281
     0
  0
BLOCK_RECORD
  5
1BBBF
102
{ACAD_XDICTIONARY
360
1BBC2
102
}
330
1
100
AcDbSymbolTableRecord
100
AcDbBlockTableRecord
  2
A$C67486678
340
0
 70
     1
280
     1
281
     0
  0
ENDTAB
  0
ENDSEC
  0
SECTION
  2
BLOCKS
  0
BLOCK
  5
20
330
1F
100
AcDbEntity
  8
0
100
AcDbBlockBegin
  2
*Model_Space
 70
     0
 10
0.0
 20
0.0
 30
0.0
  3
*Model_Space
  1

  0
ENDBLK
  5
21
330
1F
100
AcDbEntity
  8
0
100
AcDbBlockEnd
  0
BLOCK
  5
5F
330
5D
100
AcDbEntity
 67
     1
  8
0
100
AcDbBlockBegin
  2
*Paper_Space
 70
     0
 10
0.0
 20
0.0
 30
0.0
  3
*Paper_Space
  1

  0
ENDBLK
  5
60
330
5D
100
AcDbEntity
 67
     1
  8
0
100
AcDbBlockEnd
  0
BLOCK
  5
5A
330
58
100
AcDbEntity
 67
     1
  8
0
100
AcDbBlockBegin
  2
*Paper_Space0
 70
     0
 10
0.0
 20
0.0
 30
0.0
  3
*Paper_Space0
  1

  0
VIEWPORT
  5
11EF8
330
58
100
AcDbEntity
 67
     1
  8
0
100
AcDbViewport
 10
5.249999639556163
 20
3.999999883606677
 30
0.0
 40
21.60469660038833
 41
8.992999745766947
 68
     0
 69
     0
 12
5.249999639556163
 22
3.999999883606677
 13
0.0
 23
0.0
 14
0.5
 24
0.5
 15
0.5
 25
0.5
 16
0.0
 26
0.0
 36
1.0
 17
0.0
 27
0.0
 37
0.0
 42
50.0
 43
0.0
 44
0.0
 45
8.992999745766947
 50
0.0
 51
0.0
 72
  1000
 90
    32800
  1

281
     0
 71
     1
 74
     0
110
0.0
120
0.0
130
0.0
111
1.0
121
0.0
131
0.0
112
0.0
122
1.0
132
0.0
 79
     0
146
0.0
170
     0
 61
     5
348
1AD72
292
     1
282
     1
141
0.0
142
0.0
 63
   250
421
  3355443
  0
VIEWPORT
  5
11EFB
330
58
100
AcDbEntity
 67
     1
  8
Dim
100
AcDbViewport
 10
5.24999976158142
 20
3.99999976158142
 30
0.0
 40
8.399999618530271
 41
6.399999618530272
 68
     0
 69
     0
 12
70.24570646213799
 22
55.11630672257945
 13
0.0
 23
0.0
 14
0.5
 24
0.5
 15
0.5
 25
0.5
 16
0.0
 26
0.0
 36
1.0
 17
0.0
 27
0.0
 37
0.0
 42
50.0
 43
0.0
 44
0.0
 45
113.4515982453417
 50
0.0
 51
0.0
 72
  1000
 90
    32864
  1

281
     0
 71
     1
 74
     0
110
0.0
120
0.0
130
0.0
111
1.0
121
0.0
131
0.0
112
0.0
122
1.0
132
0.0
 79
     0
146
0.0
170
     0
 61
     5
348
1AD72
292
     1
282
     1
141
0.0
142
0.0
 63
   250
421
  3355443
  0
ENDBLK
  5
5B
330
58
100
AcDbEntity
 67
     1
  8
0
100
AcDbBlockEnd
  0
BLOCK
  5
13CF
330
13CB
100
AcDbEntity
  8
0
100
AcDbBlockBegin
  2
BRKLINE
 70
     0
 10
0.0
 20
0.0
 30
0.0
  3
BRKLINE
  1

  0
LWPOLYLINE
  5
13CC
330
13CB
100
AcDbEntity
  8
0
100
AcDbPolyline
 90
        4
 70
     0
 43
0.0
 10
6.808656731150684
 20
3.512459941779828
 10
6.558656731150684
 20
4.199329296643485
 10
6.058656731150684
 20
2.825590586916172
 10
5.808656731150684
 20
3.512459941779828
  0
POINT
  5
13CD
330
13CB
100
AcDbEntity
  8
DEFPOINTS
100
AcDbPoint
 10
6.808656731150684
 20
3.512459941779828
 30
0.0
  0
POINT
  5
13CE
330
13CB
100
AcDbEntity
  8
DEFPOINTS
100
AcDbPoint
 10
5.808656731150684
 20
3.512459941779828
 30
0.0
  0
ENDBLK
  5
13D0
330
13CB
100
AcDbEntity
  8
0
100
AcDbBlockEnd
  0
BLOCK
  5
1725
330
1723
100
AcDbEntity
  8
0
100
AcDbBlockBegin
  2
_ArchTick
 70
     0
 10
0.0
 20
0.0
 30
0.0
  3
_ArchTick
  1

  0
LWPOLYLINE
  5
1724
330
1723
100
AcDbEntity
  8
0
  6
ByBlock
 62
     0
100
AcDbPolyline
 90
        2
 70
     0
 43
0.15
 10
-0.5
 20
-0.5
 10
0.5
 20
0.5
  0
ENDBLK
  5
1726
330
1723
100
AcDbEntity
  8
0
100
AcDbBlockEnd
  0
BLOCK
  5
7B6C
330
7B6B
100
AcDbEntity
  8
0
100
AcDbBlockBegin
  2
logo
 70
     0
 10
0.0
 20
0.0
 30
0.0
  3
logo
  1

  0
MTEXT
  5
7B6D
330
7B6B
100
AcDbEntity
  8
Text
100
AcDbMText
 10
221.086693675525
 20
7.073797073357269
 30
0.0
 40
4.125
 41
21.35400527714894
 46
0.0
 71
     5
 72
     5
  1
\fArial|b1|i0|c0|p34;LOGIX
 73
     1
 44
1.0
  0
LWPOLYLINE
  5
7B6E
330
7B6B
100
AcDbEntity
  8
Text
 62
    10
100
AcDbPolyline
 90
        4
 70
     1
 43
0.0
 10
225.1499332619207
 20
9.683728632982365
 10
224.7383820841952
 20
9.683728632982365
 10
224.7383820841952
 20
10.35291851038301
 10
225.1499332619207
 20
10.35291851038301
  0
HATCH
  5
7B6F
330
7B6B
100
AcDbEntity
  8
Text
 62
    10
100
AcDbHatch
 10
0.0
 20
0.0
 30
0.0
210
0.0
220
0.0
230
1.0
  2
SOLID
 70
     1
 71
     0
 91
        1
 92
        7
 72
     0
 73
     1
 93
        4
 10
225.5614844396461
 20
9.683728632982363
 10
225.5614844396461
 20
10.35291851038301
 10
224.7383820841953
 20
10.35291851038301
 10
224.7383820841953
 20
9.683728632982365
 97
        0
 75
     0
 76
     1
 47
0.0123602155066018
 98
        1
 10
225.7208762804179
 20
9.919538556040233
450
        0
451
        0
460
0.0
461
0.0
452
        0
462
0.0
453
        0
470

  0
TEXT
  5
7B70
330
7B6B
100
AcDbEntity
  8
Text
100
AcDbText
 10
216.1026506038589
 20
3.969685468766058
 30
0.0
 40
0.65625
  1
INSULATED CONCRETE FORMS
  7
TITLE
100
AcDbText
  0
LWPOLYLINE
  5
7B71
330
7B6B
100
AcDbEntity
  8
Text
100
AcDbPolyline
 90
        3
 70
     0
 43
0.38671875
 10
211.295228210912
 20
6.320133515475628
 10
211.295228210912
 20
4.138949166248082
 10
215.2000098659969
 20
4.138949166248082
  0
HATCH
  5
7B72
330
7B6B
100
AcDbEntity
  8
Text
 62
    10
100
AcDbHatch
 10
0.0
 20
0.0
 30
0.0
210
0.0
220
0.0
230
1.0
  2
SOLID
 70
     1
 71
     1
 91
        1
 92
        7
 72
     0
 73
     1
 93
        4
 10
212.339355867348
 20
4.353444358275677
 10
212.339355867348
 20
5.022634235676324
 10
211.5162535118971
 20
5.022634235676322
 10
211.5162535118971
 20
4.353444358275677
 97
        1
330
7B73
 75
     0
 76
     1
 47
0.0123602155066018
 98
        1
 10
212.0586078659991
 20
4.589254281333545
450
        0
451
        0
460
0.0
461
0.0
452
        0
462
0.0
453
        0
470

  0
LWPOLYLINE
  5
7B73
102
{ACAD_REACTORS
330
7B72
102
}
330
7B6B
100
AcDbEntity
  8
Text
 62
    10
100
AcDbPolyline
 90
        4
 70
     1
 43
0.0
 10
212.339355867348
 20
4.353444358275677
 10
211.5162535118971
 20
4.353444358275677
 10
211.5162535118971
 20
5.022634235676324
 10
212.339355867348
 20
5.022634235676324
  0
MTEXT
  5
7B74
330
7B6B
100
AcDbEntity
  8
Text
100
AcDbMText
 10
231.5267760865217
 20
9.129830932173035
 30
0.0
 40
1.0
 41
1.967384484442007
 46
0.0
 71
     3
 72
     5
  1
{\fArial|b1|i0|c0|p34;TM}
 73
     1
 44
1.0
  0
ENDBLK
  5
7B75
330
7B6B
100
AcDbEntity
  8
0
100
AcDbBlockEnd
  0
BLOCK
  5
7B77
330
7B76
100
AcDbEntity
  8
0
100
AcDbBlockBegin
  2
logo1
 70
     0
 10
0.0
 20
0.0
 30
0.0
  3
logo1
  1

  0
INSERT
  5
1ADAE
330
7B76
100
AcDbEntity
  8
Text
100
AcDbBlockReference
  2
logo
 10
0.2750878984697351
 20
1.429312710851462
 30
0.0
1001
AcDbBlockRepETag
1070
     1
1071
        0
1005
1ADAE
  0
MTEXT
  5
1ADAF
330
7B76
100
AcDbEntity
  8
Text
100
AcDbMText
 10
220.8462269722975
 20
3.419269878896534
 30
0.0
 40
1.5397913732992
 41
28.81904330094251
 46
0.0
 71
     5
 72
     5
  1
{\fArial|b1|i0|c0|p34;Good. Solid. Green.}
 73
     1
 44
1.0
1001
AcDbBlockRepETag
1070
     1
1071
        1
1005
1ADAF
  0
MTEXT
  5
1ADB0
330
7B76
100
AcDbEntity
  8
Text
100
AcDbMText
 10
231.9043748365881
 20
4.468802917119665
 30
0.0
 40
0.7698956866496004
 41
1.514680828553249
 46
0.0
 71
     3
 72
     5
  1
{\fArial|b1|i0|c0|p34;TM}
 73
     1
 44
1.0
1001
AcDbBlockRepETag
1070
     1
1071
        2
1005
1ADB0
  0
MTEXT
  5
1ADB1
330
7B76
100
AcDbEntity
  8
Text
100
AcDbMText
 10
229.1192517599591
 20
2.675911896170958
 30
0.0
 40
0.75
 41
8.36266296602462
 46
0.0
 71
     1
 72
     5
  1
www.logixicf.com
 73
     1
 44
1.0
1001
AcDbBlockRepETag
1070
     1
1071
        3
1005
1ADB1
  0
ENDBLK
  5
7B7C
330
7B76
100
AcDbEntity
  8
0
100
AcDbBlockEnd
  0
BLOCK
  5
12249
330
12248
100
AcDbEntity
  8
0
100
AcDbBlockBegin
  2
NUT_HEX_0D5_SV
 70
     2
 10
0.0
 20
0.0
 30
0.0
  3
NUT_HEX_0D5_SV
  1

  0
LINE
  5
1224A
330
12248
100
AcDbEntity
  8
0
100
AcDbLine
 10
0.0299951999996994
 20
-0.2165006948201129
 30
0.0
 11
0.4179951999996993
 21
-0.2165006948201129
 31
0.0
  0
LINE
  5
1224B
330
12248
100
AcDbEntity
  8
0
100
AcDbLine
 10
0.0299951999996994
 20
0.2164993051798869
 30
0.0
 11
0.4180051999996972
 21
0.2164993051798869
 31
0.0
  0
LWPOLYLINE
  5
1224C
330
12248
100
AcDbEntity
  8
0
100
AcDbPolyline
 90
        2
 70
     0
 43
0.0
 10
0.0299951999996994
 20
0.4329993051798869
 10
0.4180051999996972
 20
0.4329993051798869
  0
ARC
  5
1224D
330
12248
100
AcDbEntity
  8
0
100
AcDbCircle
 10
-0.348204800000302
 20
-0.000000694820113
 30
0.0
 40
0.7962052
100
AcDbArc
 50
344.2218
 51
15.77825
  0
ARC
  5
1224E
330
12248
100
AcDbEntity
  8
0
100
AcDbCircle
 10
0.2376951999996985
 20
0.3247493051798851
 30
0.0
 40
0.2103013
100
AcDbArc
 50
329.0201
 51
30.97992
  0
ARC
  5
1224F
330
12248
100
AcDbEntity
  8
0
100
AcDbCircle
 10
0.210305199999698
 20
0.3247493051798851
 30
0.0
 40
0.2103013
100
AcDbArc
 50
149.0201
 51
210.9799
  0
ARC
  5
12250
330
12248
100
AcDbEntity
  8
0
100
AcDbCircle
 10
0.7962051999996968
 20
-0.000000694820113
 30
0.0
 40
0.7962052
100
AcDbArc
 50
164.2217
 51
195.7782
  0
LWPOLYLINE
  5
12251
330
12248
100
AcDbEntity
  8
0
100
AcDbPolyline
 90
        2
 70
     0
 43
0.0
 10
0.4180051999996972
 20
-0.4330006948201129
 10
0.0299951999996994
 20
-0.4330006948201129
  0
ARC
  5
12252
330
12248
100
AcDbEntity
  8
0
100
AcDbCircle
 10
0.2376951999996985
 20
-0.3247506948201146
 30
0.0
 40
0.2103013
100
AcDbArc
 50
329.0201
 51
30.97990999999999
  0
LINE
  5
12253
330
12248
100
AcDbEntity
  8
0
100
AcDbLine
 10
0.4480051999996983
 20
0.3247493051798851
 30
0.0
 11
0.4480051999996983
 21
-0.3247506948201146
 31
0.0
  0
LINE
  5
12254
330
12248
100
AcDbEntity
  8
0
100
AcDbLine
 10
0.0000051999996978
 20
-0.3247506948201146
 30
0.0
 11
0.0000051999996978
 21
0.3247493051798851
 31
0.0
  0
ARC
  5
12255
330
12248
100
AcDbEntity
  8
0
100
AcDbCircle
 10
0.210305199999698
 20
-0.3247506948201146
 30
0.0
 40
0.2103013
100
AcDbArc
 50
149.0201
 51
210.9799
  0
ATTDEF
  5
12256
330
12248
100
AcDbEntity
  8
0
100
AcDbText
 10
0.0
 20
-0.9792999999999999
 30
0.0
 40
0.021680831672485
  1

 41
0.8
  7
ATTR
100
AcDbAttributeDefinition
280
     0
  3

  2
ESTCODE
 70
     9
280
     0
  0
ENDBLK
  5
12257
330
12248
100
AcDbEntity
  8
0
100
AcDbBlockEnd
  0
BLOCK
  5
1A6B8
330
1A6B7
100
AcDbEntity
  8
0
100
AcDbBlockBegin
  2
GENAXEH
 70
     0
 10
0.0
 20
0.0
 30
0.0
  3
GENAXEH
  1

  0
LINE
  5
1A6B9
330
1A6B7
100
AcDbEntity
  8
0
100
AcDbLine
 10
-1.0
 20
0.0
 30
0.0
 11
1.0
 21
0.0
 31
0.0
  0
ENDBLK
  5
1A6BA
330
1A6B7
100
AcDbEntity
  8
0
100
AcDbBlockEnd
  0
BLOCK
  5
1BBBD
330
1BA69
100
AcDbEntity
  8
0
100
AcDbBlockBegin
  2
A$C6C89757F
 70
     0
 10
0.0
 20
0.0
 30
0.0
  3
A$C6C89757F
  1

  0
LINE
  5
1BA6A
330
1BA69
100
AcDbEntity
  8
Block
100
AcDbLine
 10
14.89999992584961
 20
48.34343454773833
 30
0.0
 11
17.64999992584973
 21
48.34343454773833
 31
0.0
  0
LINE
  5
1BA6B
330
1BA69
100
AcDbEntity
  8
Block
100
AcDbLine
 10
27.64999992584967
 20
48.34343454773833
 30
0.0
 11
30.39999992584967
 21
48.34343454773833
 31
0.0
  0
LWPOLYLINE
  5
1BA6C
330
1BA69
100
AcDbEntity
  8
Webs
  6
HIDDENX2
100
AcDbPolyline
 90
        2
 70
     0
 43
0.0
 10
26.83101688741436
 20
42.21843454773829
 10
18.4883999258497
 20
42.21843454773829
  0
LWPOLYLINE
  5
1BA6D
330
1BA69
100
AcDbEntity
  8
Webs
  6
HIDDENX2
100
AcDbPolyline
 90
        2
 70
     0
 43
0.0
 10
26.81159992584966
 20
38.4684345477383
 10
18.4883999258497
 20
38.4684345477383
  0
LWPOLYLINE
  5
1BA6E
330
1BA69
100
AcDbEntity
  8
Webs
  6
HIDDENX2
100
AcDbPolyline
 90
        2
 70
     0
 43
0.0
 10
22.33749992584979
 20
43.71843454773832
 10
21.89015692584974
 20
43.71843454773832
  0
LINE
  5
1BA6F
330
1BA69
100
AcDbEntity
  8
Webs
  6
HIDDENX2
100
AcDbLine
 10
20.6341499258497
 20
43.71843454773832
 30
0.0
 11
21.39015692584974
 21
43.71843454773832
 31
0.0
  0
LWPOLYLINE
  5
1BA70
330
1BA69
100
AcDbEntity
  8
Webs
  6
HIDDENX2
100
AcDbPolyline
 90
        2
 70
     0
 43
0.0
 10
20.6341499258497
 20
43.71843454773832
 10
20.0855729743038
 20
43.71843454773832
  0
LINE
  5
1BA71
330
1BA69
100
AcDbEntity
  8
Webs
  6
HIDDENX2
100
AcDbLine
 10
19.39999992584972
 20
43.71843454773832
 30
0.0
 11
20.61874992584973
 21
43.71843454773832
 31
0.0
  0
LWPOLYLINE
  5
1BA72
330
1BA69
100
AcDbEntity
  8
Webs
  6
HIDDENX2
100
AcDbPolyline
 90
        2
 70
     0
 43
0.0
 10
19.39999992584972
 20
43.71843454773832
 10
17.64999992584978
 20
43.71843454773832
  0
LWPOLYLINE
  5
1BA73
330
1BA69
100
AcDbEntity
  8
Webs
  6
HIDDENX2
100
AcDbPolyline
 90
        2
 70
     0
 43
0.0
 10
19.42164992584972
 20
43.71843454773832
 10
19.42164992584972
 20
43.34343454773829
  0
LWPOLYLINE
  5
1BA74
330
1BA69
100
AcDbEntity
  8
Webs
  6
HIDDENX2
100
AcDbPolyline
 90
        2
 70
     0
 43
0.0
 10
20.17164992584966
 20
43.71843454773832
 10
20.17164992584966
 20
43.34343454773829
  0
LWPOLYLINE
  5
1BA75
330
1BA69
100
AcDbEntity
  8
Webs
  6
HIDDENX2
100
AcDbPolyline
 90
        2
 70
     0
 43
0.0
 10
19.53370763950917
 20
43.70343454773831
 10
19.54263068796328
 20
43.68797937445734
  0
LWPOLYLINE
  5
1BA76
330
1BA69
100
AcDbEntity
  8
Webs
  6
HIDDENX2
100
AcDbPolyline
 90
        2
 70
     0
 43
0.0
 10
20.05959221219033
 20
43.70343454773831
 10
20.05066916373611
 20
43.68797937445734
  0
LWPOLYLINE
  5
1BA77
330
1BA69
100
AcDbEntity
  8
Webs
  6
HIDDENX2
100
AcDbPolyline
 90
        2
 70
     0
 43
0.0
 10
19.42164992584972
 20
43.34343454773829
 42
0.9999999999999998
 10
20.17164992584966
 20
43.34343454773829
  0
LWPOLYLINE
  5
1BA78
330
1BA69
100
AcDbEntity
  8
Webs
  6
HIDDENX2
100
AcDbPolyline
 90
        2
 70
     0
 43
0.0
 10
19.54263068796334
 20
43.65797937445734
 42
0.2679491924311624
 10
19.54263068796334
 20
43.68797937445734
  0
LWPOLYLINE
  5
1BA79
330
1BA69
100
AcDbEntity
  8
Webs
  6
HIDDENX2
100
AcDbPolyline
 90
        2
 70
     0
 43
0.0
 10
19.42164992584972
 20
43.44843454773834
 10
19.54263068796328
 20
43.65797937445734
  0
LWPOLYLINE
  5
1BA7A
330
1BA69
100
AcDbEntity
  8
Webs
  6
HIDDENX2
100
AcDbPolyline
 90
        2
 70
     0
 43
0.0
 10
20.05066916373611
 20
43.68797937445734
 42
0.2679491924311644
 10
20.05066916373611
 20
43.65797937445734
  0
LWPOLYLINE
  5
1BA7B
330
1BA69
100
AcDbEntity
  8
Webs
  6
HIDDENX2
100
AcDbPolyline
 90
        2
 70
     0
 43
0.0
 10
20.17164992584966
 20
43.44843454773834
 10
20.05066916373611
 20
43.65797937445734
  0
LWPOLYLINE
  5
1BA7C
330
1BA69
100
AcDbEntity
  8
Webs
  6
HIDDENX2
100
AcDbPolyline
 90
        2
 70
     0
 43
0.0
 10
19.53370763950917
 20
43.70343454773831
 42
0.2679491924312325
 10
19.50772687739558
 20
43.71843454773832
  0
LWPOLYLINE
  5
1BA7D
330
1BA69
100
AcDbEntity
  8
Webs
  6
HIDDENX2
100
AcDbPolyline
 90
        2
 70
     0
 43
0.0
 10
20.0855729743038
 20
43.71843454773832
 42
0.2679491924312281
 10
20.05959221219027
 20
43.70343454773831
  0
LWPOLYLINE
  5
1BA7E
330
1BA69
100
AcDbEntity
  8
Webs
  6
HIDDENX2
100
AcDbPolyline
 90
        2
 70
     0
 43
0.0
 10
21.39015692584974
 20
43.46843454773832
 42
1.000000000000007
 10
21.89015692584974
 20
43.46843454773832
  0
LWPOLYLINE
  5
1BA7F
330
1BA69
100
AcDbEntity
  8
Webs
  6
HIDDENX2
100
AcDbPolyline
 90
        2
 70
     0
 43
0.0
 10
21.39015692584974
 20
43.71843454773832
 10
21.39015692584974
 20
43.46843454773832
  0
LWPOLYLINE
  5
1BA80
330
1BA69
100
AcDbEntity
  8
Webs
  6
HIDDENX2
100
AcDbPolyline
 90
        2
 70
     0
 43
0.0
 10
21.89015692584974
 20
43.71843454773832
 10
21.89015692584974
 20
43.46843454773832
  0
LWPOLYLINE
  5
1BA81
330
1BA69
100
AcDbEntity
  8
Webs
  6
HIDDENX2
100
AcDbPolyline
 90
        2
 70
     0
 43
0.0
 10
22.96249992584973
 20
43.71843454773832
 10
22.96249992584973
 20
43.28093454773835
  0
LWPOLYLINE
  5
1BA82
330
1BA69
100
AcDbEntity
  8
Webs
  6
HIDDENX2
100
AcDbPolyline
 90
        2
 70
     0
 43
0.0
 10
22.33749992584979
 20
43.71843454773832
 10
22.33749992584979
 20
43.28093454773835
  0
LWPOLYLINE
  5
1BA83
330
1BA69
100
AcDbEntity
  8
Webs
  6
HIDDENX2
100
AcDbPolyline
 90
        2
 70
     0
 43
0.0
 10
22.96249992584973
 20
43.71843454773832
 10
22.96249992584973
 20
43.28093454773835
  0
LWPOLYLINE
  5
1BA84
330
1BA69
100
AcDbEntity
  8
Webs
  6
HIDDENX2
100
AcDbPolyline
 90
        2
 70
     0
 43
0.0
 10
22.33749992584979
 20
43.28093454773835
 42
0.9999999999999998
 10
22.96249992584973
 20
43.28093454773835
  0
LWPOLYLINE
  5
1BA85
330
1BA69
100
AcDbEntity
  8
Webs
  6
HIDDENX2
100
AcDbPolyline
 90
        2
 70
     0
 43
0.0
 10
22.96249992584973
 20
43.71843454773832
 10
23.06249992584969
 20
43.71843454773832
  0
LWPOLYLINE
  5
1BA86
330
1BA69
100
AcDbEntity
  8
Block
100
AcDbPolyline
 90
        2
 70
     0
 43
0.0
 10
14.89999992584961
 20
48.34343454773833
 10
14.89999992584961
 20
33.90865445326324
  0
LWPOLYLINE
  5
1BA87
330
1BA69
100
AcDbEntity
  8
Block
100
AcDbPolyline
 90
        2
 70
     0
 43
0.0
 10
30.39999992584967
 20
48.34343454773833
 10
30.39999992584967
 20
32.34343454773827
  0
LINE
  5
1BA88
330
1BA69
100
AcDbEntity
  8
Block
100
AcDbLine
 10
14.89999992584961
 20
33.90865445326324
 30
0.0
 11
17.64999992584973
 21
33.90865445326324
 31
0.0
  0
LINE
  5
1BA89
330
1BA69
100
AcDbEntity
  8
Block
100
AcDbLine
 10
27.64999992584967
 20
32.34343454773827
 30
0.0
 11
30.39999992584967
 21
32.34343454773827
 31
0.0
  0
LWPOLYLINE
  5
1BA8A
330
1BA69
100
AcDbEntity
  8
Webs
100
AcDbPolyline
 90
        2
 70
     0
 43
0.0
 10
17.64999992584973
 20
38.96079639702771
 42
0.2719204724283024
 10
18.4883999258497
 20
38.4684345477383
  0
LWPOLYLINE
  5
1BA8B
330
1BA69
100
AcDbEntity
  8
Webs
100
AcDbPolyline
 90
        2
 70
     0
 43
0.0
 10
18.4883999258497
 20
42.21843454773829
 42
0.2719204724283024
 10
17.64999992584973
 20
41.72607269844888
  0
LWPOLYLINE
  5
1BA8C
330
1BA69
100
AcDbEntity
  8
Webs
100
AcDbPolyline
 90
        2
 70
     0
 43
0.0
 10
27.66941688741437
 20
41.72607269844888
 42
0.2719204724283024
 10
26.83101688741434
 20
42.21843454773829
  0
LWPOLYLINE
  5
1BA8D
330
1BA69
100
AcDbEntity
  8
Webs
100
AcDbPolyline
 90
        2
 70
     0
 43
0.0
 10
26.81159992584964
 20
38.4684345477383
 42
0.2719204724283024
 10
27.64999992584967
 20
38.96079639702771
  0
LWPOLYLINE
  5
1BA8E
330
1BA69
100
AcDbEntity
  8
Webs
  6
HIDDENX2
100
AcDbPolyline
 90
        2
 70
     0
 43
0.0
 10
22.96249992584973
 20
43.71843454773832
 10
23.40984292584977
 20
43.71843454773832
  0
LINE
  5
1BA8F
330
1BA69
100
AcDbEntity
  8
Webs
  6
HIDDENX2
100
AcDbLine
 10
24.66584992584979
 20
43.71843454773832
 30
0.0
 11
23.90984292584978
 21
43.71843454773832
 31
0.0
  0
LWPOLYLINE
  5
1BA90
330
1BA69
100
AcDbEntity
  8
Webs
  6
HIDDENX2
100
AcDbPolyline
 90
        2
 70
     0
 43
0.0
 10
24.66584992584979
 20
43.71843454773832
 10
25.21442687739568
 20
43.71843454773832
  0
LINE
  5
1BA91
330
1BA69
100
AcDbEntity
  8
Webs
  6
HIDDENX2
100
AcDbLine
 10
25.89999992584978
 20
43.71843454773832
 30
0.0
 11
24.68124992584979
 21
43.71843454773832
 31
0.0
  0
LWPOLYLINE
  5
1BA92
330
1BA69
100
AcDbEntity
  8
Webs
  6
HIDDENX2
100
AcDbPolyline
 90
        2
 70
     0
 43
0.0
 10
25.89999992584978
 20
43.71843454773832
 10
27.64999992584973
 20
43.71843454773832
  0
LWPOLYLINE
  5
1BA93
330
1BA69
100
AcDbEntity
  8
Webs
  6
HIDDENX2
100
AcDbPolyline
 90
        2
 70
     0
 43
0.0
 10
25.87834992584976
 20
43.71843454773832
 10
25.87834992584976
 20
43.34343454773829
  0
LWPOLYLINE
  5
1BA94
330
1BA69
100
AcDbEntity
  8
Webs
  6
HIDDENX2
100
AcDbPolyline
 90
        2
 70
     0
 43
0.0
 10
25.12834992584982
 20
43.71843454773832
 10
25.12834992584982
 20
43.34343454773829
  0
LWPOLYLINE
  5
1BA95
330
1BA69
100
AcDbEntity
  8
Webs
  6
HIDDENX2
100
AcDbPolyline
 90
        2
 70
     0
 43
0.0
 10
25.76629221219031
 20
43.70343454773831
 10
25.7573691637362
 20
43.68797937445734
  0
LWPOLYLINE
  5
1BA96
330
1BA69
100
AcDbEntity
  8
Webs
  6
HIDDENX2
100
AcDbPolyline
 90
        2
 70
     0
 43
0.0
 10
25.24040763950916
 20
43.70343454773831
 10
25.24933068796338
 20
43.68797937445734
  0
LWPOLYLINE
  5
1BA97
330
1BA69
100
AcDbEntity
  8
Webs
  6
HIDDENX2
100
AcDbPolyline
 90
        2
 70
     0
 43
0.0
 10
25.87834992584976
 20
43.34343454773829
 42
-0.9999999999999998
 10
25.12834992584982
 20
43.34343454773829
  0
LWPOLYLINE
  5
1BA98
330
1BA69
100
AcDbEntity
  8
Webs
  6
HIDDENX2
100
AcDbPolyline
 90
        2
 70
     0
 43
0.0
 10
25.75736916373614
 20
43.65797937445734
 42
-0.2679491924311624
 10
25.75736916373614
 20
43.68797937445734
  0
LWPOLYLINE
  5
1BA99
330
1BA69
100
AcDbEntity
  8
Webs
  6
HIDDENX2
100
AcDbPolyline
 90
        2
 70
     0
 43
0.0
 10
25.87834992584976
 20
43.44843454773834
 10
25.7573691637362
 20
43.65797937445734
  0
LWPOLYLINE
  5
1BA9A
330
1BA69
100
AcDbEntity
  8
Webs
  6
HIDDENX2
100
AcDbPolyline
 90
        2
 70
     0
 43
0.0
 10
25.24933068796338
 20
43.68797937445734
 42
-0.2679491924311644
 10
25.24933068796338
 20
43.65797937445734
  0
LWPOLYLINE
  5
1BA9B
330
1BA69
100
AcDbEntity
  8
Webs
  6
HIDDENX2
100
AcDbPolyline
 90
        2
 70
     0
 43
0.0
 10
25.12834992584982
 20
43.44843454773834
 10
25.24933068796338
 20
43.65797937445734
  0
LWPOLYLINE
  5
1BA9C
330
1BA69
100
AcDbEntity
  8
Webs
  6
HIDDENX2
100
AcDbPolyline
 90
        2
 70
     0
 43
0.0
 10
25.76629221219031
 20
43.70343454773831
 42
-0.2679491924312325
 10
25.7922729743039
 20
43.71843454773832
  0
LWPOLYLINE
  5
1BA9D
330
1BA69
100
AcDbEntity
  8
Webs
  6
HIDDENX2
100
AcDbPolyline
 90
        2
 70
     0
 43
0.0
 10
25.21442687739568
 20
43.71843454773832
 42
-0.2679491924312281
 10
25.24040763950921
 20
43.70343454773831
  0
LWPOLYLINE
  5
1BA9E
330
1BA69
100
AcDbEntity
  8
Webs
  6
HIDDENX2
100
AcDbPolyline
 90
        2
 70
     0
 43
0.0
 10
23.90984292584978
 20
43.46843454773832
 42
-1.000000000000007
 10
23.40984292584977
 20
43.46843454773832
  0
LWPOLYLINE
  5
1BA9F
330
1BA69
100
AcDbEntity
  8
Webs
  6
HIDDENX2
100
AcDbPolyline
 90
        2
 70
     0
 43
0.0
 10
23.90984292584978
 20
43.71843454773832
 10
23.90984292584978
 20
43.46843454773832
  0
LWPOLYLINE
  5
1BAA0
330
1BA69
100
AcDbEntity
  8
Webs
  6
HIDDENX2
100
AcDbPolyline
 90
        2
 70
     0
 43
0.0
 10
23.40984292584977
 20
43.71843454773832
 10
23.40984292584977
 20
43.46843454773832
  0
LWPOLYLINE
  5
1BAA1
330
1BA69
100
AcDbEntity
  8
Webs
  6
HIDDENX2
100
AcDbPolyline
 90
        2
 70
     0
 43
0.0
 10
22.33749992584979
 20
36.96843454773824
 10
21.89015692584974
 20
36.96843454773824
  0
LINE
  5
1BAA2
330
1BA69
100
AcDbEntity
  8
Webs
  6
HIDDENX2
100
AcDbLine
 10
20.6341499258497
 20
36.96843454773824
 30
0.0
 11
21.39015692584974
 21
36.96843454773824
 31
0.0
  0
LWPOLYLINE
  5
1BAA3
330
1BA69
100
AcDbEntity
  8
Webs
  6
HIDDENX2
100
AcDbPolyline
 90
        2
 70
     0
 43
0.0
 10
20.6341499258497
 20
36.96843454773824
 10
20.0855729743038
 20
36.96843454773824
  0
LINE
  5
1BAA4
330
1BA69
100
AcDbEntity
  8
Webs
  6
HIDDENX2
100
AcDbLine
 10
19.39999992584972
 20
36.96843454773824
 30
0.0
 11
20.61874992584973
 21
36.96843454773824
 31
0.0
  0
LWPOLYLINE
  5
1BAA5
330
1BA69
100
AcDbEntity
  8
Webs
  6
HIDDENX2
100
AcDbPolyline
 90
        2
 70
     0
 43
0.0
 10
19.39999992584972
 20
36.96843454773824
 10
17.64999992584978
 20
36.96843454773824
  0
LWPOLYLINE
  5
1BAA6
330
1BA69
100
AcDbEntity
  8
Webs
  6
HIDDENX2
100
AcDbPolyline
 90
        2
 70
     0
 43
0.0
 10
19.42164992584972
 20
36.96843454773824
 10
19.42164992584972
 20
37.34343454773827
  0
LWPOLYLINE
  5
1BAA7
330
1BA69
100
AcDbEntity
  8
Webs
  6
HIDDENX2
100
AcDbPolyline
 90
        2
 70
     0
 43
0.0
 10
20.17164992584966
 20
36.96843454773824
 10
20.17164992584966
 20
37.34343454773827
  0
LWPOLYLINE
  5
1BAA8
330
1BA69
100
AcDbEntity
  8
Webs
  6
HIDDENX2
100
AcDbPolyline
 90
        2
 70
     0
 43
0.0
 10
19.53370763950917
 20
36.98343454773826
 10
19.54263068796328
 20
36.99888972101923
  0
LWPOLYLINE
  5
1BAA9
330
1BA69
100
AcDbEntity
  8
Webs
  6
HIDDENX2
100
AcDbPolyline
 90
        2
 70
     0
 43
0.0
 10
20.05959221219033
 20
36.98343454773826
 10
20.05066916373611
 20
36.99888972101923
  0
LWPOLYLINE
  5
1BAAA
330
1BA69
100
AcDbEntity
  8
Webs
  6
HIDDENX2
100
AcDbPolyline
 90
        2
 70
     0
 43
0.0
 10
19.42164992584972
 20
37.34343454773827
 42
-0.9999999999999998
 10
20.17164992584966
 20
37.34343454773827
  0
LWPOLYLINE
  5
1BAAB
330
1BA69
100
AcDbEntity
  8
Webs
  6
HIDDENX2
100
AcDbPolyline
 90
        2
 70
     0
 43
0.0
 10
19.54263068796334
 20
37.02888972101923
 42
-0.2679491924311624
 10
19.54263068796334
 20
36.99888972101923
  0
LWPOLYLINE
  5
1BAAC
330
1BA69
100
AcDbEntity
  8
Webs
  6
HIDDENX2
100
AcDbPolyline
 90
        2
 70
     0
 43
0.0
 10
19.42164992584972
 20
37.23843454773823
 10
19.54263068796328
 20
37.02888972101923
  0
LWPOLYLINE
  5
1BAAD
330
1BA69
100
AcDbEntity
  8
Webs
  6
HIDDENX2
100
AcDbPolyline
 90
        2
 70
     0
 43
0.0
 10
20.05066916373611
 20
36.99888972101923
 42
-0.2679491924311644
 10
20.05066916373611
 20
37.02888972101923
  0
LWPOLYLINE
  5
1BAAE
330
1BA69
100
AcDbEntity
  8
Webs
  6
HIDDENX2
100
AcDbPolyline
 90
        2
 70
     0
 43
0.0
 10
20.17164992584966
 20
37.23843454773823
 10
20.05066916373611
 20
37.02888972101923
  0
LWPOLYLINE
  5
1BAAF
330
1BA69
100
AcDbEntity
  8
Webs
  6
HIDDENX2
100
AcDbPolyline
 90
        2
 70
     0
 43
0.0
 10
19.53370763950917
 20
36.98343454773826
 42
-0.2679491924312325
 10
19.50772687739558
 20
36.96843454773824
  0
LWPOLYLINE
  5
1BAB0
330
1BA69
100
AcDbEntity
  8
Webs
  6
HIDDENX2
100
AcDbPolyline
 90
        2
 70
     0
 43
0.0
 10
20.0855729743038
 20
36.96843454773824
 42
-0.2679491924312281
 10
20.05959221219027
 20
36.98343454773826
  0
LWPOLYLINE
  5
1BAB1
330
1BA69
100
AcDbEntity
  8
Webs
  6
HIDDENX2
100
AcDbPolyline
 90
        2
 70
     0
 43
0.0
 10
21.39015692584974
 20
37.21843454773824
 42
-1.000000000000007
 10
21.89015692584974
 20
37.21843454773824
  0
LWPOLYLINE
  5
1BAB2
330
1BA69
100
AcDbEntity
  8
Webs
  6
HIDDENX2
100
AcDbPolyline
 90
        2
 70
     0
 43
0.0
 10
21.39015692584974
 20
36.96843454773824
 10
21.39015692584974
 20
37.21843454773824
  0
LWPOLYLINE
  5
1BAB3
330
1BA69
100
AcDbEntity
  8
Webs
  6
HIDDENX2
100
AcDbPolyline
 90
        2
 70
     0
 43
0.0
 10
21.89015692584974
 20
36.96843454773824
 10
21.89015692584974
 20
37.21843454773824
  0
LWPOLYLINE
  5
1BAB4
330
1BA69
100
AcDbEntity
  8
Webs
  6
HIDDENX2
100
AcDbPolyline
 90
        2
 70
     0
 43
0.0
 10
22.96249992584973
 20
36.96843454773824
 10
22.96249992584973
 20
37.40593454773821
  0
LWPOLYLINE
  5
1BAB5
330
1BA69
100
AcDbEntity
  8
Webs
  6
HIDDENX2
100
AcDbPolyline
 90
        2
 70
     0
 43
0.0
 10
22.33749992584979
 20
36.96843454773824
 10
22.33749992584979
 20
37.40593454773821
  0
LWPOLYLINE
  5
1BAB6
330
1BA69
100
AcDbEntity
  8
Webs
  6
HIDDENX2
100
AcDbPolyline
 90
        2
 70
     0
 43
0.0
 10
22.96249992584973
 20
36.96843454773824
 10
22.96249992584973
 20
37.40593454773821
  0
LWPOLYLINE
  5
1BAB7
330
1BA69
100
AcDbEntity
  8
Webs
  6
HIDDENX2
100
AcDbPolyline
 90
        2
 70
     0
 43
0.0
 10
22.33749992584979
 20
37.40593454773821
 42
-0.9999999999999998
 10
22.96249992584973
 20
37.40593454773821
  0
LWPOLYLINE
  5
1BAB8
330
1BA69
100
AcDbEntity
  8
Webs
  6
HIDDENX2
100
AcDbPolyline
 90
        2
 70
     0
 43
0.0
 10
22.96249992584973
 20
36.96843454773824
 10
23.06249992584969
 20
36.96843454773824
  0
LWPOLYLINE
  5
1BAB9
330
1BA69
100
AcDbEntity
  8
Webs
  6
HIDDENX2
100
AcDbPolyline
 90
        2
 70
     0
 43
0.0
 10
22.96249992584973
 20
36.96843454773824
 10
23.40984292584977
 20
36.96843454773824
  0
LINE
  5
1BABA
330
1BA69
100
AcDbEntity
  8
Webs
  6
HIDDENX2
100
AcDbLine
 10
24.66584992584979
 20
36.96843454773824
 30
0.0
 11
23.90984292584978
 21
36.96843454773824
 31
0.0
  0
LWPOLYLINE
  5
1BABB
330
1BA69
100
AcDbEntity
  8
Webs
  6
HIDDENX2
100
AcDbPolyline
 90
        2
 70
     0
 43
0.0
 10
24.66584992584979
 20
36.96843454773824
 10
25.21442687739568
 20
36.96843454773824
  0
LINE
  5
1BABC
330
1BA69
100
AcDbEntity
  8
Webs
  6
HIDDENX2
100
AcDbLine
 10
25.89999992584978
 20
36.96843454773824
 30
0.0
 11
24.68124992584979
 21
36.96843454773824
 31
0.0
  0
LWPOLYLINE
  5
1BABD
330
1BA69
100
AcDbEntity
  8
Webs
  6
HIDDENX2
100
AcDbPolyline
 90
        2
 70
     0
 43
0.0
 10
25.89999992584978
 20
36.96843454773824
 10
27.64999992584973
 20
36.96843454773824
  0
LWPOLYLINE
  5
1BABE
330
1BA69
100
AcDbEntity
  8
Webs
  6
HIDDENX2
100
AcDbPolyline
 90
        2
 70
     0
 43
0.0
 10
25.87834992584976
 20
36.96843454773824
 10
25.87834992584976
 20
37.34343454773827
  0
LWPOLYLINE
  5
1BABF
330
1BA69
100
AcDbEntity
  8
Webs
  6
HIDDENX2
100
AcDbPolyline
 90
        2
 70
     0
 43
0.0
 10
25.12834992584982
 20
36.96843454773824
 10
25.12834992584982
 20
37.34343454773827
  0
LWPOLYLINE
  5
1BAC0
330
1BA69
100
AcDbEntity
  8
Webs
  6
HIDDENX2
100
AcDbPolyline
 90
        2
 70
     0
 43
0.0
 10
25.76629221219031
 20
36.98343454773826
 10
25.7573691637362
 20
36.99888972101923
  0
LWPOLYLINE
  5
1BAC1
330
1BA69
100
AcDbEntity
  8
Webs
  6
HIDDENX2
100
AcDbPolyline
 90
        2
 70
     0
 43
0.0
 10
25.24040763950916
 20
36.98343454773826
 10
25.24933068796338
 20
36.99888972101923
  0
LWPOLYLINE
  5
1BAC2
330
1BA69
100
AcDbEntity
  8
Webs
  6
HIDDENX2
100
AcDbPolyline
 90
        2
 70
     0
 43
0.0
 10
25.87834992584976
 20
37.34343454773827
 42
0.9999999999999998
 10
25.12834992584982
 20
37.34343454773827
  0
LWPOLYLINE
  5
1BAC3
330
1BA69
100
AcDbEntity
  8
Webs
  6
HIDDENX2
100
AcDbPolyline
 90
        2
 70
     0
 43
0.0
 10
25.75736916373614
 20
37.02888972101923
 42
0.2679491924311624
 10
25.75736916373614
 20
36.99888972101923
  0
LWPOLYLINE
  5
1BAC4
330
1BA69
100
AcDbEntity
  8
Webs
  6
HIDDENX2
100
AcDbPolyline
 90
        2
 70
     0
 43
0.0
 10
25.87834992584976
 20
37.23843454773823
 10
25.7573691637362
 20
37.02888972101923
  0
LWPOLYLINE
  5
1BAC5
330
1BA69
100
AcDbEntity
  8
Webs
  6
HIDDENX2
100
AcDbPolyline
 90
        2
 70
     0
 43
0.0
 10
25.24933068796338
 20
36.99888972101923
 42
0.2679491924311644
 10
25.24933068796338
 20
37.02888972101923
  0
LWPOLYLINE
  5
1BAC6
330
1BA69
100
AcDbEntity
  8
Webs
  6
HIDDENX2
100
AcDbPolyline
 90
        2
 70
     0
 43
0.0
 10
25.12834992584982
 20
37.23843454773823
 10
25.24933068796338
 20
37.02888972101923
  0
LWPOLYLINE
  5
1BAC7
330
1BA69
100
AcDbEntity
  8
Webs
  6
HIDDENX2
100
AcDbPolyline
 90
        2
 70
     0
 43
0.0
 10
25.76629221219031
 20
36.98343454773826
 42
0.2679491924312325
 10
25.7922729743039
 20
36.96843454773824
  0
LWPOLYLINE
  5
1BAC8
330
1BA69
100
AcDbEntity
  8
Webs
  6
HIDDENX2
100
AcDbPolyline
 90
        2
 70
     0
 43
0.0
 10
25.21442687739568
 20
36.96843454773824
 42
0.2679491924312281
 10
25.24040763950921
 20
36.98343454773826
  0
LWPOLYLINE
  5
1BAC9
330
1BA69
100
AcDbEntity
  8
Webs
  6
HIDDENX2
100
AcDbPolyline
 90
        2
 70
     0
 43
0.0
 10
23.90984292584978
 20
37.21843454773824
 42
1.000000000000007
 10
23.40984292584977
 20
37.21843454773824
  0
LWPOLYLINE
  5
1BACA
330
1BA69
100
AcDbEntity
  8
Webs
  6
HIDDENX2
100
AcDbPolyline
 90
        2
 70
     0
 43
0.0
 10
23.90984292584978
 20
36.96843454773824
 10
23.90984292584978
 20
37.21843454773824
  0
LWPOLYLINE
  5
1BACB
330
1BA69
100
AcDbEntity
  8
Webs
  6
HIDDENX2
100
AcDbPolyline
 90
        2
 70
     0
 43
0.0
 10
23.40984292584977
 20
36.96843454773824
 10
23.40984292584977
 20
37.21843454773824
  0
LWPOLYLINE
  5
1BACC
330
1BA69
100
AcDbEntity
  8
Block
100
AcDbPolyline
 90
        2
 70
     0
 43
0.0
 10
17.64999992584973
 20
48.34343454773833
 10
17.64999992584973
 20
32.34343454773827
  0
LWPOLYLINE
  5
1BACD
330
1BA69
100
AcDbEntity
  8
Block
100
AcDbPolyline
 90
        2
 70
     0
 43
0.0
 10
27.64999992584967
 20
48.34343454773833
 10
27.64999992584967
 20
32.34343454773827
  0
LWPOLYLINE
  5
1BACE
330
1BA69
100
AcDbEntity
  8
Webs
  6
HIDDENX2
100
AcDbPolyline
 90
        2
 70
     0
 43
0.0
 10
26.83101688741436
 20
26.21843454773824
 10
18.4883999258497
 20
26.21843454773824
  0
LWPOLYLINE
  5
1BACF
330
1BA69
100
AcDbEntity
  8
Webs
  6
HIDDENX2
100
AcDbPolyline
 90
        2
 70
     0
 43
0.0
 10
26.81159992584966
 20
22.46843454773824
 10
18.4883999258497
 20
22.46843454773824
  0
LWPOLYLINE
  5
1BAD0
330
1BA69
100
AcDbEntity
  8
Webs
  6
HIDDENX2
100
AcDbPolyline
 90
        2
 70
     0
 43
0.0
 10
22.33749992584979
 20
27.71843454773827
 10
21.89015692584974
 20
27.71843454773827
  0
LINE
  5
1BAD1
330
1BA69
100
AcDbEntity
  8
Webs
  6
HIDDENX2
100
AcDbLine
 10
20.6341499258497
 20
27.71843454773827
 30
0.0
 11
21.39015692584974
 21
27.71843454773827
 31
0.0
  0
LWPOLYLINE
  5
1BAD2
330
1BA69
100
AcDbEntity
  8
Webs
  6
HIDDENX2
100
AcDbPolyline
 90
        2
 70
     0
 43
0.0
 10
20.6341499258497
 20
27.71843454773827
 10
20.0855729743038
 20
27.71843454773827
  0
LINE
  5
1BAD3
330
1BA69
100
AcDbEntity
  8
Webs
  6
HIDDENX2
100
AcDbLine
 10
19.39999992584972
 20
27.71843454773827
 30
0.0
 11
20.61874992584973
 21
27.71843454773827
 31
0.0
  0
LWPOLYLINE
  5
1BAD4
330
1BA69
100
AcDbEntity
  8
Webs
  6
HIDDENX2
100
AcDbPolyline
 90
        2
 70
     0
 43
0.0
 10
19.39999992584972
 20
27.71843454773827
 10
17.64999992584978
 20
27.71843454773827
  0
LWPOLYLINE
  5
1BAD5
330
1BA69
100
AcDbEntity
  8
Webs
  6
HIDDENX2
100
AcDbPolyline
 90
        2
 70
     0
 43
0.0
 10
19.42164992584972
 20
27.71843454773827
 10
19.42164992584972
 20
27.34343454773824
  0
LWPOLYLINE
  5
1BAD6
330
1BA69
100
AcDbEntity
  8
Webs
  6
HIDDENX2
100
AcDbPolyline
 90
        2
 70
     0
 43
0.0
 10
20.17164992584966
 20
27.71843454773827
 10
20.17164992584966
 20
27.34343454773824
  0
LWPOLYLINE
  5
1BAD7
330
1BA69
100
AcDbEntity
  8
Webs
  6
HIDDENX2
100
AcDbPolyline
 90
        2
 70
     0
 43
0.0
 10
19.53370763950917
 20
27.70343454773826
 10
19.54263068796328
 20
27.68797937445729
  0
LWPOLYLINE
  5
1BAD8
330
1BA69
100
AcDbEntity
  8
Webs
  6
HIDDENX2
100
AcDbPolyline
 90
        2
 70
     0
 43
0.0
 10
20.05959221219033
 20
27.70343454773826
 10
20.05066916373611
 20
27.68797937445729
  0
LWPOLYLINE
  5
1BAD9
330
1BA69
100
AcDbEntity
  8
Webs
  6
HIDDENX2
100
AcDbPolyline
 90
        2
 70
     0
 43
0.0
 10
19.42164992584972
 20
27.34343454773824
 42
0.9999999999999998
 10
20.17164992584966
 20
27.34343454773824
  0
LWPOLYLINE
  5
1BADA
330
1BA69
100
AcDbEntity
  8
Webs
  6
HIDDENX2
100
AcDbPolyline
 90
        2
 70
     0
 43
0.0
 10
19.54263068796334
 20
27.65797937445729
 42
0.2679491924311624
 10
19.54263068796334
 20
27.68797937445729
  0
LWPOLYLINE
  5
1BADB
330
1BA69
100
AcDbEntity
  8
Webs
  6
HIDDENX2
100
AcDbPolyline
 90
        2
 70
     0
 43
0.0
 10
19.42164992584972
 20
27.44843454773829
 10
19.54263068796328
 20
27.65797937445729
  0
LWPOLYLINE
  5
1BADC
330
1BA69
100
AcDbEntity
  8
Webs
  6
HIDDENX2
100
AcDbPolyline
 90
        2
 70
     0
 43
0.0
 10
20.05066916373611
 20
27.68797937445729
 42
0.2679491924311644
 10
20.05066916373611
 20
27.65797937445729
  0
LWPOLYLINE
  5
1BADD
330
1BA69
100
AcDbEntity
  8
Webs
  6
HIDDENX2
100
AcDbPolyline
 90
        2
 70
     0
 43
0.0
 10
20.17164992584966
 20
27.44843454773829
 10
20.05066916373611
 20
27.65797937445729
  0
LWPOLYLINE
  5
1BADE
330
1BA69
100
AcDbEntity
  8
Webs
  6
HIDDENX2
100
AcDbPolyline
 90
        2
 70
     0
 43
0.0
 10
19.53370763950917
 20
27.70343454773826
 42
0.2679491924312325
 10
19.50772687739558
 20
27.71843454773827
  0
LWPOLYLINE
  5
1BADF
330
1BA69
100
AcDbEntity
  8
Webs
  6
HIDDENX2
100
AcDbPolyline
 90
        2
 70
     0
 43
0.0
 10
20.0855729743038
 20
27.71843454773827
 42
0.2679491924312281
 10
20.05959221219027
 20
27.70343454773826
  0
LWPOLYLINE
  5
1BAE0
330
1BA69
100
AcDbEntity
  8
Webs
  6
HIDDENX2
100
AcDbPolyline
 90
        2
 70
     0
 43
0.0
 10
21.39015692584974
 20
27.46843454773827
 42
1.000000000000007
 10
21.89015692584974
 20
27.46843454773827
  0
LWPOLYLINE
  5
1BAE1
330
1BA69
100
AcDbEntity
  8
Webs
  6
HIDDENX2
100
AcDbPolyline
 90
        2
 70
     0
 43
0.0
 10
21.39015692584974
 20
27.71843454773827
 10
21.39015692584974
 20
27.46843454773827
  0
LWPOLYLINE
  5
1BAE2
330
1BA69
100
AcDbEntity
  8
Webs
  6
HIDDENX2
100
AcDbPolyline
 90
        2
 70
     0
 43
0.0
 10
21.89015692584974
 20
27.71843454773827
 10
21.89015692584974
 20
27.46843454773827
  0
LWPOLYLINE
  5
1BAE3
330
1BA69
100
AcDbEntity
  8
Webs
  6
HIDDENX2
100
AcDbPolyline
 90
        2
 70
     0
 43
0.0
 10
22.96249992584973
 20
27.71843454773827
 10
22.96249992584973
 20
27.2809345477383
  0
LWPOLYLINE
  5
1BAE4
330
1BA69
100
AcDbEntity
  8
Webs
  6
HIDDENX2
100
AcDbPolyline
 90
        2
 70
     0
 43
0.0
 10
22.33749992584979
 20
27.71843454773827
 10
22.33749992584979
 20
27.2809345477383
  0
LWPOLYLINE
  5
1BAE5
330
1BA69
100
AcDbEntity
  8
Webs
  6
HIDDENX2
100
AcDbPolyline
 90
        2
 70
     0
 43
0.0
 10
22.96249992584973
 20
27.71843454773827
 10
22.96249992584973
 20
27.2809345477383
  0
LWPOLYLINE
  5
1BAE6
330
1BA69
100
AcDbEntity
  8
Webs
  6
HIDDENX2
100
AcDbPolyline
 90
        2
 70
     0
 43
0.0
 10
22.33749992584979
 20
27.2809345477383
 42
0.9999999999999998
 10
22.96249992584973
 20
27.2809345477383
  0
LWPOLYLINE
  5
1BAE7
330
1BA69
100
AcDbEntity
  8
Webs
  6
HIDDENX2
100
AcDbPolyline
 90
        2
 70
     0
 43
0.0
 10
22.96249992584973
 20
27.71843454773827
 10
23.06249992584969
 20
27.71843454773827
  0
LWPOLYLINE
  5
1BAE8
330
1BA69
100
AcDbEntity
  8
Block
100
AcDbPolyline
 90
        2
 70
     0
 43
0.0
 10
14.89999992584961
 20
21.70865445326324
 10
14.89999992584961
 20
16.34343454773821
  0
LWPOLYLINE
  5
1BAE9
330
1BA69
100
AcDbEntity
  8
Block
100
AcDbPolyline
 90
        2
 70
     0
 43
0.0
 10
30.39999992584967
 20
32.34343454773827
 10
30.39999992584967
 20
16.34343454773821
  0
LINE
  5
1BAEA
330
1BA69
100
AcDbEntity
  8
Block
100
AcDbLine
 10
14.89999992584961
 20
16.34343454773821
 30
0.0
 11
17.64999992584973
 21
16.34343454773821
 31
0.0
  0
LINE
  5
1BAEB
330
1BA69
100
AcDbEntity
  8
Block
100
AcDbLine
 10
27.64999992584967
 20
16.34343454773821
 30
0.0
 11
30.39999992584967
 21
16.34343454773821
 31
0.0
  0
LWPOLYLINE
  5
1BAEC
330
1BA69
100
AcDbEntity
  8
Webs
100
AcDbPolyline
 90
        2
 70
     0
 43
0.0
 10
17.64999992584973
 20
22.96079639702765
 42
0.2719204724283024
 10
18.4883999258497
 20
22.46843454773824
  0
LWPOLYLINE
  5
1BAED
330
1BA69
100
AcDbEntity
  8
Webs
100
AcDbPolyline
 90
        2
 70
     0
 43
0.0
 10
18.4883999258497
 20
26.21843454773824
 42
0.2719204724283024
 10
17.64999992584973
 20
25.72607269844883
  0
LWPOLYLINE
  5
1BAEE
330
1BA69
100
AcDbEntity
  8
Webs
100
AcDbPolyline
 90
        2
 70
     0
 43
0.0
 10
27.66941688741437
 20
25.72607269844883
 42
0.2719204724283024
 10
26.83101688741434
 20
26.21843454773824
  0
LWPOLYLINE
  5
1BAEF
330
1BA69
100
AcDbEntity
  8
Webs
100
AcDbPolyline
 90
        2
 70
     0
 43
0.0
 10
26.81159992584964
 20
22.46843454773824
 42
0.2719204724283024
 10
27.64999992584967
 20
22.96079639702765
  0
LWPOLYLINE
  5
1BAF0
330
1BA69
100
AcDbEntity
  8
Webs
  6
HIDDENX2
100
AcDbPolyline
 90
        2
 70
     0
 43
0.0
 10
22.96249992584973
 20
27.71843454773827
 10
23.40984292584977
 20
27.71843454773827
  0
LINE
  5
1BAF1
330
1BA69
100
AcDbEntity
  8
Webs
  6
HIDDENX2
100
AcDbLine
 10
24.66584992584979
 20
27.71843454773827
 30
0.0
 11
23.90984292584978
 21
27.71843454773827
 31
0.0
  0
LWPOLYLINE
  5
1BAF2
330
1BA69
100
AcDbEntity
  8
Webs
  6
HIDDENX2
100
AcDbPolyline
 90
        2
 70
     0
 43
0.0
 10
24.66584992584979
 20
27.71843454773827
 10
25.21442687739568
 20
27.71843454773827
  0
LINE
  5
1BAF3
330
1BA69
100
AcDbEntity
  8
Webs
  6
HIDDENX2
100
AcDbLine
 10
25.89999992584978
 20
27.71843454773827
 30
0.0
 11
24.68124992584979
 21
27.71843454773827
 31
0.0
  0
LWPOLYLINE
  5
1BAF4
330
1BA69
100
AcDbEntity
  8
Webs
  6
HIDDENX2
100
AcDbPolyline
 90
        2
 70
     0
 43
0.0
 10
25.89999992584978
 20
27.71843454773827
 10
27.64999992584973
 20
27.71843454773827
  0
LWPOLYLINE
  5
1BAF5
330
1BA69
100
AcDbEntity
  8
Webs
  6
HIDDENX2
100
AcDbPolyline
 90
        2
 70
     0
 43
0.0
 10
25.87834992584976
 20
27.71843454773827
 10
25.87834992584976
 20
27.34343454773824
  0
LWPOLYLINE
  5
1BAF6
330
1BA69
100
AcDbEntity
  8
Webs
  6
HIDDENX2
100
AcDbPolyline
 90
        2
 70
     0
 43
0.0
 10
25.12834992584982
 20
27.71843454773827
 10
25.12834992584982
 20
27.34343454773824
  0
LWPOLYLINE
  5
1BAF7
330
1BA69
100
AcDbEntity
  8
Webs
  6
HIDDENX2
100
AcDbPolyline
 90
        2
 70
     0
 43
0.0
 10
25.76629221219031
 20
27.70343454773826
 10
25.7573691637362
 20
27.68797937445729
  0
LWPOLYLINE
  5
1BAF8
330
1BA69
100
AcDbEntity
  8
Webs
  6
HIDDENX2
100
AcDbPolyline
 90
        2
 70
     0
 43
0.0
 10
25.24040763950916
 20
27.70343454773826
 10
25.24933068796338
 20
27.68797937445729
  0
LWPOLYLINE
  5
1BAF9
330
1BA69
100
AcDbEntity
  8
Webs
  6
HIDDENX2
100
AcDbPolyline
 90
        2
 70
     0
 43
0.0
 10
25.87834992584976
 20
27.34343454773824
 42
-0.9999999999999998
 10
25.12834992584982
 20
27.34343454773824
  0
LWPOLYLINE
  5
1BAFA
330
1BA69
100
AcDbEntity
  8
Webs
  6
HIDDENX2
100
AcDbPolyline
 90
        2
 70
     0
 43
0.0
 10
25.75736916373614
 20
27.65797937445729
 42
-0.2679491924311624
 10
25.75736916373614
 20
27.68797937445729
  0
LWPOLYLINE
  5
1BAFB
330
1BA69
100
AcDbEntity
  8
Webs
  6
HIDDENX2
100
AcDbPolyline
 90
        2
 70
     0
 43
0.0
 10
25.87834992584976
 20
27.44843454773829
 10
25.7573691637362
 20
27.65797937445729
  0
LWPOLYLINE
  5
1BAFC
330
1BA69
100
AcDbEntity
  8
Webs
  6
HIDDENX2
100
AcDbPolyline
 90
        2
 70
     0
 43
0.0
 10
25.24933068796338
 20
27.68797937445729
 42
-0.2679491924311644
 10
25.24933068796338
 20
27.65797937445729
  0
LWPOLYLINE
  5
1BAFD
330
1BA69
100
AcDbEntity
  8
Webs
  6
HIDDENX2
100
AcDbPolyline
 90
        2
 70
     0
 43
0.0
 10
25.12834992584982
 20
27.44843454773829
 10
25.24933068796338
 20
27.65797937445729
  0
LWPOLYLINE
  5
1BAFE
330
1BA69
100
AcDbEntity
  8
Webs
  6
HIDDENX2
100
AcDbPolyline
 90
        2
 70
     0
 43
0.0
 10
25.76629221219031
 20
27.70343454773826
 42
-0.2679491924312325
 10
25.7922729743039
 20
27.71843454773827
  0
LWPOLYLINE
  5
1BAFF
330
1BA69
100
AcDbEntity
  8
Webs
  6
HIDDENX2
100
AcDbPolyline
 90
        2
 70
     0
 43
0.0
 10
25.21442687739568
 20
27.71843454773827
 42
-0.2679491924312281
 10
25.24040763950921
 20
27.70343454773826
  0
LWPOLYLINE
  5
1BB00
330
1BA69
100
AcDbEntity
  8
Webs
  6
HIDDENX2
100
AcDbPolyline
 90
        2
 70
     0
 43
0.0
 10
23.90984292584978
 20
27.46843454773827
 42
-1.000000000000007
 10
23.40984292584977
 20
27.46843454773827
  0
LWPOLYLINE
  5
1BB01
330
1BA69
100
AcDbEntity
  8
Webs
  6
HIDDENX2
100
AcDbPolyline
 90
        2
 70
     0
 43
0.0
 10
23.90984292584978
 20
27.71843454773827
 10
23.90984292584978
 20
27.46843454773827
  0
LWPOLYLINE
  5
1BB02
330
1BA69
100
AcDbEntity
  8
Webs
  6
HIDDENX2
100
AcDbPolyline
 90
        2
 70
     0
 43
0.0
 10
23.40984292584977
 20
27.71843454773827
 10
23.40984292584977
 20
27.46843454773827
  0
LWPOLYLINE
  5
1BB03
330
1BA69
100
AcDbEntity
  8
Webs
  6
HIDDENX2
100
AcDbPolyline
 90
        2
 70
     0
 43
0.0
 10
22.33749992584979
 20
20.96843454773818
 10
21.89015692584974
 20
20.96843454773818
  0
LINE
  5
1BB04
330
1BA69
100
AcDbEntity
  8
Webs
  6
HIDDENX2
100
AcDbLine
 10
20.6341499258497
 20
20.96843454773818
 30
0.0
 11
21.39015692584974
 21
20.96843454773818
 31
0.0
  0
LWPOLYLINE
  5
1BB05
330
1BA69
100
AcDbEntity
  8
Webs
  6
HIDDENX2
100
AcDbPolyline
 90
        2
 70
     0
 43
0.0
 10
20.6341499258497
 20
20.96843454773818
 10
20.0855729743038
 20
20.96843454773818
  0
LINE
  5
1BB06
330
1BA69
100
AcDbEntity
  8
Webs
  6
HIDDENX2
100
AcDbLine
 10
19.39999992584972
 20
20.96843454773818
 30
0.0
 11
20.61874992584973
 21
20.96843454773818
 31
0.0
  0
LWPOLYLINE
  5
1BB07
330
1BA69
100
AcDbEntity
  8
Webs
  6
HIDDENX2
100
AcDbPolyline
 90
        2
 70
     0
 43
0.0
 10
19.39999992584972
 20
20.96843454773818
 10
17.64999992584978
 20
20.96843454773818
  0
LWPOLYLINE
  5
1BB08
330
1BA69
100
AcDbEntity
  8
Webs
  6
HIDDENX2
100
AcDbPolyline
 90
        2
 70
     0
 43
0.0
 10
19.42164992584972
 20
20.96843454773818
 10
19.42164992584972
 20
21.34343454773821
  0
LWPOLYLINE
  5
1BB09
330
1BA69
100
AcDbEntity
  8
Webs
  6
HIDDENX2
100
AcDbPolyline
 90
        2
 70
     0
 43
0.0
 10
20.17164992584966
 20
20.96843454773818
 10
20.17164992584966
 20
21.34343454773821
  0
LWPOLYLINE
  5
1BB0A
330
1BA69
100
AcDbEntity
  8
Webs
  6
HIDDENX2
100
AcDbPolyline
 90
        2
 70
     0
 43
0.0
 10
19.53370763950917
 20
20.9834345477382
 10
19.54263068796328
 20
20.99888972101917
  0
LWPOLYLINE
  5
1BB0B
330
1BA69
100
AcDbEntity
  8
Webs
  6
HIDDENX2
100
AcDbPolyline
 90
        2
 70
     0
 43
0.0
 10
20.05959221219033
 20
20.9834345477382
 10
20.05066916373611
 20
20.99888972101917
  0
LWPOLYLINE
  5
1BB0C
330
1BA69
100
AcDbEntity
  8
Webs
  6
HIDDENX2
100
AcDbPolyline
 90
        2
 70
     0
 43
0.0
 10
19.42164992584972
 20
21.34343454773821
 42
-0.9999999999999998
 10
20.17164992584966
 20
21.34343454773821
  0
LWPOLYLINE
  5
1BB0D
330
1BA69
100
AcDbEntity
  8
Webs
  6
HIDDENX2
100
AcDbPolyline
 90
        2
 70
     0
 43
0.0
 10
19.54263068796334
 20
21.02888972101917
 42
-0.2679491924311624
 10
19.54263068796334
 20
20.99888972101917
  0
LWPOLYLINE
  5
1BB0E
330
1BA69
100
AcDbEntity
  8
Webs
  6
HIDDENX2
100
AcDbPolyline
 90
        2
 70
     0
 43
0.0
 10
19.42164992584972
 20
21.23843454773817
 10
19.54263068796328
 20
21.02888972101917
  0
LWPOLYLINE
  5
1BB0F
330
1BA69
100
AcDbEntity
  8
Webs
  6
HIDDENX2
100
AcDbPolyline
 90
        2
 70
     0
 43
0.0
 10
20.05066916373611
 20
20.99888972101917
 42
-0.2679491924311644
 10
20.05066916373611
 20
21.02888972101917
  0
LWPOLYLINE
  5
1BB10
330
1BA69
100
AcDbEntity
  8
Webs
  6
HIDDENX2
100
AcDbPolyline
 90
        2
 70
     0
 43
0.0
 10
20.17164992584966
 20
21.23843454773817
 10
20.05066916373611
 20
21.02888972101917
  0
LWPOLYLINE
  5
1BB11
330
1BA69
100
AcDbEntity
  8
Webs
  6
HIDDENX2
100
AcDbPolyline
 90
        2
 70
     0
 43
0.0
 10
19.53370763950917
 20
20.9834345477382
 42
-0.2679491924312325
 10
19.50772687739558
 20
20.96843454773818
  0
LWPOLYLINE
  5
1BB12
330
1BA69
100
AcDbEntity
  8
Webs
  6
HIDDENX2
100
AcDbPolyline
 90
        2
 70
     0
 43
0.0
 10
20.0855729743038
 20
20.96843454773818
 42
-0.2679491924312281
 10
20.05959221219027
 20
20.9834345477382
  0
LWPOLYLINE
  5
1BB13
330
1BA69
100
AcDbEntity
  8
Webs
  6
HIDDENX2
100
AcDbPolyline
 90
        2
 70
     0
 43
0.0
 10
21.39015692584974
 20
21.21843454773818
 42
-1.000000000000007
 10
21.89015692584974
 20
21.21843454773818
  0
LWPOLYLINE
  5
1BB14
330
1BA69
100
AcDbEntity
  8
Webs
  6
HIDDENX2
100
AcDbPolyline
 90
        2
 70
     0
 43
0.0
 10
21.39015692584974
 20
20.96843454773818
 10
21.39015692584974
 20
21.21843454773818
  0
LWPOLYLINE
  5
1BB15
330
1BA69
100
AcDbEntity
  8
Webs
  6
HIDDENX2
100
AcDbPolyline
 90
        2
 70
     0
 43
0.0
 10
21.89015692584974
 20
20.96843454773818
 10
21.89015692584974
 20
21.21843454773818
  0
LWPOLYLINE
  5
1BB16
330
1BA69
100
AcDbEntity
  8
Webs
  6
HIDDENX2
100
AcDbPolyline
 90
        2
 70
     0
 43
0.0
 10
22.96249992584973
 20
20.96843454773818
 10
22.96249992584973
 20
21.40593454773815
  0
LWPOLYLINE
  5
1BB17
330
1BA69
100
AcDbEntity
  8
Webs
  6
HIDDENX2
100
AcDbPolyline
 90
        2
 70
     0
 43
0.0
 10
22.33749992584979
 20
20.96843454773818
 10
22.33749992584979
 20
21.40593454773815
  0
LWPOLYLINE
  5
1BB18
330
1BA69
100
AcDbEntity
  8
Webs
  6
HIDDENX2
100
AcDbPolyline
 90
        2
 70
     0
 43
0.0
 10
22.96249992584973
 20
20.96843454773818
 10
22.96249992584973
 20
21.40593454773815
  0
LWPOLYLINE
  5
1BB19
330
1BA69
100
AcDbEntity
  8
Webs
  6
HIDDENX2
100
AcDbPolyline
 90
        2
 70
     0
 43
0.0
 10
22.33749992584979
 20
21.40593454773815
 42
-0.9999999999999998
 10
22.96249992584973
 20
21.40593454773815
  0
LWPOLYLINE
  5
1BB1A
330
1BA69
100
AcDbEntity
  8
Webs
  6
HIDDENX2
100
AcDbPolyline
 90
        2
 70
     0
 43
0.0
 10
22.96249992584973
 20
20.96843454773818
 10
23.06249992584969
 20
20.96843454773818
  0
LWPOLYLINE
  5
1BB1B
330
1BA69
100
AcDbEntity
  8
Webs
  6
HIDDENX2
100
AcDbPolyline
 90
        2
 70
     0
 43
0.0
 10
22.96249992584973
 20
20.96843454773818
 10
23.40984292584977
 20
20.96843454773818
  0
LINE
  5
1BB1C
330
1BA69
100
AcDbEntity
  8
Webs
  6
HIDDENX2
100
AcDbLine
 10
24.66584992584979
 20
20.96843454773818
 30
0.0
 11
23.90984292584978
 21
20.96843454773818
 31
0.0
  0
LWPOLYLINE
  5
1BB1D
330
1BA69
100
AcDbEntity
  8
Webs
  6
HIDDENX2
100
AcDbPolyline
 90
        2
 70
     0
 43
0.0
 10
24.66584992584979
 20
20.96843454773818
 10
25.21442687739568
 20
20.96843454773818
  0
LINE
  5
1BB1E
330
1BA69
100
AcDbEntity
  8
Webs
  6
HIDDENX2
100
AcDbLine
 10
25.89999992584978
 20
20.96843454773818
 30
0.0
 11
24.68124992584979
 21
20.96843454773818
 31
0.0
  0
LWPOLYLINE
  5
1BB1F
330
1BA69
100
AcDbEntity
  8
Webs
  6
HIDDENX2
100
AcDbPolyline
 90
        2
 70
     0
 43
0.0
 10
25.89999992584978
 20
20.96843454773818
 10
27.64999992584973
 20
20.96843454773818
  0
LWPOLYLINE
  5
1BB20
330
1BA69
100
AcDbEntity
  8
Webs
  6
HIDDENX2
100
AcDbPolyline
 90
        2
 70
     0
 43
0.0
 10
25.87834992584976
 20
20.96843454773818
 10
25.87834992584976
 20
21.34343454773821
  0
LWPOLYLINE
  5
1BB21
330
1BA69
100
AcDbEntity
  8
Webs
  6
HIDDENX2
100
AcDbPolyline
 90
        2
 70
     0
 43
0.0
 10
25.12834992584982
 20
20.96843454773818
 10
25.12834992584982
 20
21.34343454773821
  0
LWPOLYLINE
  5
1BB22
330
1BA69
100
AcDbEntity
  8
Webs
  6
HIDDENX2
100
AcDbPolyline
 90
        2
 70
     0
 43
0.0
 10
25.76629221219031
 20
20.9834345477382
 10
25.7573691637362
 20
20.99888972101917
  0
LWPOLYLINE
  5
1BB23
330
1BA69
100
AcDbEntity
  8
Webs
  6
HIDDENX2
100
AcDbPolyline
 90
        2
 70
     0
 43
0.0
 10
25.24040763950916
 20
20.9834345477382
 10
25.24933068796338
 20
20.99888972101917
  0
LWPOLYLINE
  5
1BB24
330
1BA69
100
AcDbEntity
  8
Webs
  6
HIDDENX2
100
AcDbPolyline
 90
        2
 70
     0
 43
0.0
 10
25.87834992584976
 20
21.34343454773821
 42
0.9999999999999998
 10
25.12834992584982
 20
21.34343454773821
  0
LWPOLYLINE
  5
1BB25
330
1BA69
100
AcDbEntity
  8
Webs
  6
HIDDENX2
100
AcDbPolyline
 90
        2
 70
     0
 43
0.0
 10
25.75736916373614
 20
21.02888972101917
 42
0.2679491924311624
 10
25.75736916373614
 20
20.99888972101917
  0
LWPOLYLINE
  5
1BB26
330
1BA69
100
AcDbEntity
  8
Webs
  6
HIDDENX2
100
AcDbPolyline
 90
        2
 70
     0
 43
0.0
 10
25.87834992584976
 20
21.23843454773817
 10
25.7573691637362
 20
21.02888972101917
  0
LWPOLYLINE
  5
1BB27
330
1BA69
100
AcDbEntity
  8
Webs
  6
HIDDENX2
100
AcDbPolyline
 90
        2
 70
     0
 43
0.0
 10
25.24933068796338
 20
20.99888972101917
 42
0.2679491924311644
 10
25.24933068796338
 20
21.02888972101917
  0
LWPOLYLINE
  5
1BB28
330
1BA69
100
AcDbEntity
  8
Webs
  6
HIDDENX2
100
AcDbPolyline
 90
        2
 70
     0
 43
0.0
 10
25.12834992584982
 20
21.23843454773817
 10
25.24933068796338
 20
21.02888972101917
  0
LWPOLYLINE
  5
1BB29
330
1BA69
100
AcDbEntity
  8
Webs
  6
HIDDENX2
100
AcDbPolyline
 90
        2
 70
     0
 43
0.0
 10
25.76629221219031
 20
20.9834345477382
 42
0.2679491924312325
 10
25.7922729743039
 20
20.96843454773818
  0
LWPOLYLINE
  5
1BB2A
330
1BA69
100
AcDbEntity
  8
Webs
  6
HIDDENX2
100
AcDbPolyline
 90
        2
 70
     0
 43
0.0
 10
25.21442687739568
 20
20.96843454773818
 42
0.2679491924312281
 10
25.24040763950921
 20
20.9834345477382
  0
LWPOLYLINE
  5
1BB2B
330
1BA69
100
AcDbEntity
  8
Webs
  6
HIDDENX2
100
AcDbPolyline
 90
        2
 70
     0
 43
0.0
 10
23.90984292584978
 20
21.21843454773818
 42
1.000000000000007
 10
23.40984292584977
 20
21.21843454773818
  0
LWPOLYLINE
  5
1BB2C
330
1BA69
100
AcDbEntity
  8
Webs
  6
HIDDENX2
100
AcDbPolyline
 90
        2
 70
     0
 43
0.0
 10
23.90984292584978
 20
20.96843454773818
 10
23.90984292584978
 20
21.21843454773818
  0
LWPOLYLINE
  5
1BB2D
330
1BA69
100
AcDbEntity
  8
Webs
  6
HIDDENX2
100
AcDbPolyline
 90
        2
 70
     0
 43
0.0
 10
23.40984292584977
 20
20.96843454773818
 10
23.40984292584977
 20
21.21843454773818
  0
LWPOLYLINE
  5
1BB2E
330
1BA69
100
AcDbEntity
  8
Block
100
AcDbPolyline
 90
        2
 70
     0
 43
0.0
 10
17.64999992584973
 20
32.34343454773827
 10
17.64999992584973
 20
16.34343454773821
  0
LWPOLYLINE
  5
1BB2F
330
1BA69
100
AcDbEntity
  8
Block
100
AcDbPolyline
 90
        2
 70
     0
 43
0.0
 10
27.64999992584967
 20
32.34343454773827
 10
27.64999992584967
 20
16.34343454773821
  0
LWPOLYLINE
  5
1BB30
330
1BA69
100
AcDbEntity
  8
Webs
  6
HIDDENX2
100
AcDbPolyline
 90
        2
 70
     0
 43
0.0
 10
26.83101688741436
 20
10.21843454773818
 10
18.4883999258497
 20
10.21843454773818
  0
LWPOLYLINE
  5
1BB31
330
1BA69
100
AcDbEntity
  8
Webs
  6
HIDDENX2
100
AcDbPolyline
 90
        2
 70
     0
 43
0.0
 10
26.81159992584966
 20
6.468434547738183
 10
18.4883999258497
 20
6.468434547738183
  0
LWPOLYLINE
  5
1BB32
330
1BA69
100
AcDbEntity
  8
Webs
  6
HIDDENX2
100
AcDbPolyline
 90
        2
 70
     0
 43
0.0
 10
22.33749992584979
 20
11.71843454773821
 10
21.89015692584974
 20
11.71843454773821
  0
LINE
  5
1BB33
330
1BA69
100
AcDbEntity
  8
Webs
  6
HIDDENX2
100
AcDbLine
 10
20.6341499258497
 20
11.71843454773821
 30
0.0
 11
21.39015692584974
 21
11.71843454773821
 31
0.0
  0
LWPOLYLINE
  5
1BB34
330
1BA69
100
AcDbEntity
  8
Webs
  6
HIDDENX2
100
AcDbPolyline
 90
        2
 70
     0
 43
0.0
 10
20.6341499258497
 20
11.71843454773821
 10
20.0855729743038
 20
11.71843454773821
  0
LINE
  5
1BB35
330
1BA69
100
AcDbEntity
  8
Webs
  6
HIDDENX2
100
AcDbLine
 10
19.39999992584972
 20
11.71843454773821
 30
0.0
 11
20.61874992584973
 21
11.71843454773821
 31
0.0
  0
LWPOLYLINE
  5
1BB36
330
1BA69
100
AcDbEntity
  8
Webs
  6
HIDDENX2
100
AcDbPolyline
 90
        2
 70
     0
 43
0.0
 10
19.39999992584972
 20
11.71843454773821
 10
17.64999992584978
 20
11.71843454773821
  0
LWPOLYLINE
  5
1BB37
330
1BA69
100
AcDbEntity
  8
Webs
  6
HIDDENX2
100
AcDbPolyline
 90
        2
 70
     0
 43
0.0
 10
19.42164992584972
 20
11.71843454773821
 10
19.42164992584972
 20
11.34343454773818
  0
LWPOLYLINE
  5
1BB38
330
1BA69
100
AcDbEntity
  8
Webs
  6
HIDDENX2
100
AcDbPolyline
 90
        2
 70
     0
 43
0.0
 10
20.17164992584966
 20
11.71843454773821
 10
20.17164992584966
 20
11.34343454773818
  0
LWPOLYLINE
  5
1BB39
330
1BA69
100
AcDbEntity
  8
Webs
  6
HIDDENX2
100
AcDbPolyline
 90
        2
 70
     0
 43
0.0
 10
19.53370763950917
 20
11.7034345477382
 10
19.54263068796328
 20
11.68797937445723
  0
LWPOLYLINE
  5
1BB3A
330
1BA69
100
AcDbEntity
  8
Webs
  6
HIDDENX2
100
AcDbPolyline
 90
        2
 70
     0
 43
0.0
 10
20.05959221219033
 20
11.7034345477382
 10
20.05066916373611
 20
11.68797937445723
  0
LWPOLYLINE
  5
1BB3B
330
1BA69
100
AcDbEntity
  8
Webs
  6
HIDDENX2
100
AcDbPolyline
 90
        2
 70
     0
 43
0.0
 10
19.42164992584972
 20
11.34343454773818
 42
0.9999999999999998
 10
20.17164992584966
 20
11.34343454773818
  0
LWPOLYLINE
  5
1BB3C
330
1BA69
100
AcDbEntity
  8
Webs
  6
HIDDENX2
100
AcDbPolyline
 90
        2
 70
     0
 43
0.0
 10
19.54263068796334
 20
11.65797937445723
 42
0.2679491924311624
 10
19.54263068796334
 20
11.68797937445723
  0
LWPOLYLINE
  5
1BB3D
330
1BA69
100
AcDbEntity
  8
Webs
  6
HIDDENX2
100
AcDbPolyline
 90
        2
 70
     0
 43
0.0
 10
19.42164992584972
 20
11.44843454773823
 10
19.54263068796328
 20
11.65797937445723
  0
LWPOLYLINE
  5
1BB3E
330
1BA69
100
AcDbEntity
  8
Webs
  6
HIDDENX2
100
AcDbPolyline
 90
        2
 70
     0
 43
0.0
 10
20.05066916373611
 20
11.68797937445723
 42
0.2679491924311644
 10
20.05066916373611
 20
11.65797937445723
  0
LWPOLYLINE
  5
1BB3F
330
1BA69
100
AcDbEntity
  8
Webs
  6
HIDDENX2
100
AcDbPolyline
 90
        2
 70
     0
 43
0.0
 10
20.17164992584966
 20
11.44843454773823
 10
20.05066916373611
 20
11.65797937445723
  0
LWPOLYLINE
  5
1BB40
330
1BA69
100
AcDbEntity
  8
Webs
  6
HIDDENX2
100
AcDbPolyline
 90
        2
 70
     0
 43
0.0
 10
19.53370763950917
 20
11.7034345477382
 42
0.2679491924312325
 10
19.50772687739558
 20
11.71843454773821
  0
LWPOLYLINE
  5
1BB41
330
1BA69
100
AcDbEntity
  8
Webs
  6
HIDDENX2
100
AcDbPolyline
 90
        2
 70
     0
 43
0.0
 10
20.0855729743038
 20
11.71843454773821
 42
0.2679491924312281
 10
20.05959221219027
 20
11.7034345477382
  0
LWPOLYLINE
  5
1BB42
330
1BA69
100
AcDbEntity
  8
Webs
  6
HIDDENX2
100
AcDbPolyline
 90
        2
 70
     0
 43
0.0
 10
21.39015692584974
 20
11.46843454773821
 42
1.000000000000007
 10
21.89015692584974
 20
11.46843454773821
  0
LWPOLYLINE
  5
1BB43
330
1BA69
100
AcDbEntity
  8
Webs
  6
HIDDENX2
100
AcDbPolyline
 90
        2
 70
     0
 43
0.0
 10
21.39015692584974
 20
11.71843454773821
 10
21.39015692584974
 20
11.46843454773821
  0
LWPOLYLINE
  5
1BB44
330
1BA69
100
AcDbEntity
  8
Webs
  6
HIDDENX2
100
AcDbPolyline
 90
        2
 70
     0
 43
0.0
 10
21.89015692584974
 20
11.71843454773821
 10
21.89015692584974
 20
11.46843454773821
  0
LWPOLYLINE
  5
1BB45
330
1BA69
100
AcDbEntity
  8
Webs
  6
HIDDENX2
100
AcDbPolyline
 90
        2
 70
     0
 43
0.0
 10
22.96249992584973
 20
11.71843454773821
 10
22.96249992584973
 20
11.28093454773824
  0
LWPOLYLINE
  5
1BB46
330
1BA69
100
AcDbEntity
  8
Webs
  6
HIDDENX2
100
AcDbPolyline
 90
        2
 70
     0
 43
0.0
 10
22.33749992584979
 20
11.71843454773821
 10
22.33749992584979
 20
11.28093454773824
  0
LWPOLYLINE
  5
1BB47
330
1BA69
100
AcDbEntity
  8
Webs
  6
HIDDENX2
100
AcDbPolyline
 90
        2
 70
     0
 43
0.0
 10
22.96249992584973
 20
11.71843454773821
 10
22.96249992584973
 20
11.28093454773824
  0
LWPOLYLINE
  5
1BB48
330
1BA69
100
AcDbEntity
  8
Webs
  6
HIDDENX2
100
AcDbPolyline
 90
        2
 70
     0
 43
0.0
 10
22.33749992584979
 20
11.28093454773824
 42
0.9999999999999998
 10
22.96249992584973
 20
11.28093454773824
  0
LWPOLYLINE
  5
1BB49
330
1BA69
100
AcDbEntity
  8
Webs
  6
HIDDENX2
100
AcDbPolyline
 90
        2
 70
     0
 43
0.0
 10
22.96249992584973
 20
11.71843454773821
 10
23.06249992584969
 20
11.71843454773821
  0
LWPOLYLINE
  5
1BB4A
330
1BA69
100
AcDbEntity
  8
Block
100
AcDbPolyline
 90
        2
 70
     0
 43
0.0
 10
14.89999992584961
 20
16.34343454773821
 10
14.89999992584961
 20
0.3434345477381555
  0
LWPOLYLINE
  5
1BB4B
330
1BA69
100
AcDbEntity
  8
Block
100
AcDbPolyline
 90
        2
 70
     0
 43
0.0
 10
30.39999992584967
 20
16.34343454773821
 10
30.39999992584967
 20
0.3434345477381555
  0
LINE
  5
1BB4C
330
1BA69
100
AcDbEntity
  8
Block
100
AcDbLine
 10
14.89999992584961
 20
0.3434345477381555
 30
0.0
 11
17.64999992584973
 21
0.3434345477381555
 31
0.0
  0
LINE
  5
1BB4D
330
1BA69
100
AcDbEntity
  8
Block
100
AcDbLine
 10
27.64999992584967
 20
0.3434345477381555
 30
0.0
 11
30.39999992584967
 21
0.3434345477381555
 31
0.0
  0
LWPOLYLINE
  5
1BB4E
330
1BA69
100
AcDbEntity
  8
Webs
100
AcDbPolyline
 90
        2
 70
     0
 43
0.0
 10
17.64999992584973
 20
6.960796397027593
 42
0.2719204724283024
 10
18.4883999258497
 20
6.468434547738183
  0
LWPOLYLINE
  5
1BB4F
330
1BA69
100
AcDbEntity
  8
Webs
100
AcDbPolyline
 90
        2
 70
     0
 43
0.0
 10
18.4883999258497
 20
10.21843454773818
 42
0.2719204724283024
 10
17.64999992584973
 20
9.726072698448774
  0
LWPOLYLINE
  5
1BB50
330
1BA69
100
AcDbEntity
  8
Webs
100
AcDbPolyline
 90
        2
 70
     0
 43
0.0
 10
27.66941688741437
 20
9.726072698448774
 42
0.2719204724283024
 10
26.83101688741434
 20
10.21843454773818
  0
LWPOLYLINE
  5
1BB51
330
1BA69
100
AcDbEntity
  8
Webs
100
AcDbPolyline
 90
        2
 70
     0
 43
0.0
 10
26.81159992584964
 20
6.468434547738183
 42
0.2719204724283024
 10
27.64999992584967
 20
6.960796397027593
  0
LWPOLYLINE
  5
1BB52
330
1BA69
100
AcDbEntity
  8
Webs
  6
HIDDENX2
100
AcDbPolyline
 90
        2
 70
     0
 43
0.0
 10
22.96249992584973
 20
11.71843454773821
 10
23.40984292584977
 20
11.71843454773821
  0
LINE
  5
1BB53
330
1BA69
100
AcDbEntity
  8
Webs
  6
HIDDENX2
100
AcDbLine
 10
24.66584992584979
 20
11.71843454773821
 30
0.0
 11
23.90984292584978
 21
11.71843454773821
 31
0.0
  0
LWPOLYLINE
  5
1BB54
330
1BA69
100
AcDbEntity
  8
Webs
  6
HIDDENX2
100
AcDbPolyline
 90
        2
 70
     0
 43
0.0
 10
24.66584992584979
 20
11.71843454773821
 10
25.21442687739568
 20
11.71843454773821
  0
LINE
  5
1BB55
330
1BA69
100
AcDbEntity
  8
Webs
  6
HIDDENX2
100
AcDbLine
 10
25.89999992584978
 20
11.71843454773821
 30
0.0
 11
24.68124992584979
 21
11.71843454773821
 31
0.0
  0
LWPOLYLINE
  5
1BB56
330
1BA69
100
AcDbEntity
  8
Webs
  6
HIDDENX2
100
AcDbPolyline
 90
        2
 70
     0
 43
0.0
 10
25.89999992584978
 20
11.71843454773821
 10
27.64999992584973
 20
11.71843454773821
  0
LWPOLYLINE
  5
1BB57
330
1BA69
100
AcDbEntity
  8
Webs
  6
HIDDENX2
100
AcDbPolyline
 90
        2
 70
     0
 43
0.0
 10
25.87834992584976
 20
11.71843454773821
 10
25.87834992584976
 20
11.34343454773818
  0
LWPOLYLINE
  5
1BB58
330
1BA69
100
AcDbEntity
  8
Webs
  6
HIDDENX2
100
AcDbPolyline
 90
        2
 70
     0
 43
0.0
 10
25.12834992584982
 20
11.71843454773821
 10
25.12834992584982
 20
11.34343454773818
  0
LWPOLYLINE
  5
1BB59
330
1BA69
100
AcDbEntity
  8
Webs
  6
HIDDENX2
100
AcDbPolyline
 90
        2
 70
     0
 43
0.0
 10
25.76629221219031
 20
11.7034345477382
 10
25.7573691637362
 20
11.68797937445723
  0
LWPOLYLINE
  5
1BB5A
330
1BA69
100
AcDbEntity
  8
Webs
  6
HIDDENX2
100
AcDbPolyline
 90
        2
 70
     0
 43
0.0
 10
25.24040763950916
 20
11.7034345477382
 10
25.24933068796338
 20
11.68797937445723
  0
LWPOLYLINE
  5
1BB5B
330
1BA69
100
AcDbEntity
  8
Webs
  6
HIDDENX2
100
AcDbPolyline
 90
        2
 70
     0
 43
0.0
 10
25.87834992584976
 20
11.34343454773818
 42
-0.9999999999999998
 10
25.12834992584982
 20
11.34343454773818
  0
LWPOLYLINE
  5
1BB5C
330
1BA69
100
AcDbEntity
  8
Webs
  6
HIDDENX2
100
AcDbPolyline
 90
        2
 70
     0
 43
0.0
 10
25.75736916373614
 20
11.65797937445723
 42
-0.2679491924311624
 10
25.75736916373614
 20
11.68797937445723
  0
LWPOLYLINE
  5
1BB5D
330
1BA69
100
AcDbEntity
  8
Webs
  6
HIDDENX2
100
AcDbPolyline
 90
        2
 70
     0
 43
0.0
 10
25.87834992584976
 20
11.44843454773823
 10
25.7573691637362
 20
11.65797937445723
  0
LWPOLYLINE
  5
1BB5E
330
1BA69
100
AcDbEntity
  8
Webs
  6
HIDDENX2
100
AcDbPolyline
 90
        2
 70
     0
 43
0.0
 10
25.24933068796338
 20
11.68797937445723
 42
-0.2679491924311644
 10
25.24933068796338
 20
11.65797937445723
  0
LWPOLYLINE
  5
1BB5F
330
1BA69
100
AcDbEntity
  8
Webs
  6
HIDDENX2
100
AcDbPolyline
 90
        2
 70
     0
 43
0.0
 10
25.12834992584982
 20
11.44843454773823
 10
25.24933068796338
 20
11.65797937445723
  0
LWPOLYLINE
  5
1BB60
330
1BA69
100
AcDbEntity
  8
Webs
  6
HIDDENX2
100
AcDbPolyline
 90
        2
 70
     0
 43
0.0
 10
25.76629221219031
 20
11.7034345477382
 42
-0.2679491924312325
 10
25.7922729743039
 20
11.71843454773821
  0
LWPOLYLINE
  5
1BB61
330
1BA69
100
AcDbEntity
  8
Webs
  6
HIDDENX2
100
AcDbPolyline
 90
        2
 70
     0
 43
0.0
 10
25.21442687739568
 20
11.71843454773821
 42
-0.2679491924312281
 10
25.24040763950921
 20
11.7034345477382
  0
LWPOLYLINE
  5
1BB62
330
1BA69
100
AcDbEntity
  8
Webs
  6
HIDDENX2
100
AcDbPolyline
 90
        2
 70
     0
 43
0.0
 10
23.90984292584978
 20
11.46843454773821
 42
-1.000000000000007
 10
23.40984292584977
 20
11.46843454773821
  0
LWPOLYLINE
  5
1BB63
330
1BA69
100
AcDbEntity
  8
Webs
  6
HIDDENX2
100
AcDbPolyline
 90
        2
 70
     0
 43
0.0
 10
23.90984292584978
 20
11.71843454773821
 10
23.90984292584978
 20
11.46843454773821
  0
LWPOLYLINE
  5
1BB64
330
1BA69
100
AcDbEntity
  8
Webs
  6
HIDDENX2
100
AcDbPolyline
 90
        2
 70
     0
 43
0.0
 10
23.40984292584977
 20
11.71843454773821
 10
23.40984292584977
 20
11.46843454773821
  0
LWPOLYLINE
  5
1BB65
330
1BA69
100
AcDbEntity
  8
Webs
  6
HIDDENX2
100
AcDbPolyline
 90
        2
 70
     0
 43
0.0
 10
22.33749992584979
 20
4.968434547738127
 10
21.89015692584974
 20
4.968434547738127
  0
LINE
  5
1BB66
330
1BA69
100
AcDbEntity
  8
Webs
  6
HIDDENX2
100
AcDbLine
 10
20.6341499258497
 20
4.968434547738127
 30
0.0
 11
21.39015692584974
 21
4.968434547738127
 31
0.0
  0
LWPOLYLINE
  5
1BB67
330
1BA69
100
AcDbEntity
  8
Webs
  6
HIDDENX2
100
AcDbPolyline
 90
        2
 70
     0
 43
0.0
 10
20.6341499258497
 20
4.968434547738127
 10
20.0855729743038
 20
4.968434547738127
  0
LINE
  5
1BB68
330
1BA69
100
AcDbEntity
  8
Webs
  6
HIDDENX2
100
AcDbLine
 10
19.39999992584972
 20
4.968434547738127
 30
0.0
 11
20.61874992584973
 21
4.968434547738127
 31
0.0
  0
LWPOLYLINE
  5
1BB69
330
1BA69
100
AcDbEntity
  8
Webs
  6
HIDDENX2
100
AcDbPolyline
 90
        2
 70
     0
 43
0.0
 10
19.39999992584972
 20
4.968434547738127
 10
17.64999992584978
 20
4.968434547738127
  0
LWPOLYLINE
  5
1BB6A
330
1BA69
100
AcDbEntity
  8
Webs
  6
HIDDENX2
100
AcDbPolyline
 90
        2
 70
     0
 43
0.0
 10
19.42164992584972
 20
4.968434547738127
 10
19.42164992584972
 20
5.343434547738155
  0
LWPOLYLINE
  5
1BB6B
330
1BA69
100
AcDbEntity
  8
Webs
  6
HIDDENX2
100
AcDbPolyline
 90
        2
 70
     0
 43
0.0
 10
20.17164992584966
 20
4.968434547738127
 10
20.17164992584966
 20
5.343434547738155
  0
LWPOLYLINE
  5
1BB6C
330
1BA69
100
AcDbEntity
  8
Webs
  6
HIDDENX2
100
AcDbPolyline
 90
        2
 70
     0
 43
0.0
 10
19.53370763950917
 20
4.983434547738141
 10
19.54263068796328
 20
4.998889721019111
  0
LWPOLYLINE
  5
1BB6D
330
1BA69
100
AcDbEntity
  8
Webs
  6
HIDDENX2
100
AcDbPolyline
 90
        2
 70
     0
 43
0.0
 10
20.05959221219033
 20
4.983434547738141
 10
20.05066916373611
 20
4.998889721019111
  0
LWPOLYLINE
  5
1BB6E
330
1BA69
100
AcDbEntity
  8
Webs
  6
HIDDENX2
100
AcDbPolyline
 90
        2
 70
     0
 43
0.0
 10
19.42164992584972
 20
5.343434547738155
 42
-0.9999999999999998
 10
20.17164992584966
 20
5.343434547738155
  0
LWPOLYLINE
  5
1BB6F
330
1BA69
100
AcDbEntity
  8
Webs
  6
HIDDENX2
100
AcDbPolyline
 90
        2
 70
     0
 43
0.0
 10
19.54263068796334
 20
5.028889721019112
 42
-0.2679491924311624
 10
19.54263068796334
 20
4.998889721019111
  0
LWPOLYLINE
  5
1BB70
330
1BA69
100
AcDbEntity
  8
Webs
  6
HIDDENX2
100
AcDbPolyline
 90
        2
 70
     0
 43
0.0
 10
19.42164992584972
 20
5.238434547738108
 10
19.54263068796328
 20
5.028889721019112
  0
LWPOLYLINE
  5
1BB71
330
1BA69
100
AcDbEntity
  8
Webs
  6
HIDDENX2
100
AcDbPolyline
 90
        2
 70
     0
 43
0.0
 10
20.05066916373611
 20
4.998889721019111
 42
-0.2679491924311644
 10
20.05066916373611
 20
5.028889721019112
  0
LWPOLYLINE
  5
1BB72
330
1BA69
100
AcDbEntity
  8
Webs
  6
HIDDENX2
100
AcDbPolyline
 90
        2
 70
     0
 43
0.0
 10
20.17164992584966
 20
5.238434547738108
 10
20.05066916373611
 20
5.028889721019112
  0
LWPOLYLINE
  5
1BB73
330
1BA69
100
AcDbEntity
  8
Webs
  6
HIDDENX2
100
AcDbPolyline
 90
        2
 70
     0
 43
0.0
 10
19.53370763950917
 20
4.983434547738141
 42
-0.2679491924312325
 10
19.50772687739558
 20
4.968434547738127
  0
LWPOLYLINE
  5
1BB74
330
1BA69
100
AcDbEntity
  8
Webs
  6
HIDDENX2
100
AcDbPolyline
 90
        2
 70
     0
 43
0.0
 10
20.0855729743038
 20
4.968434547738127
 42
-0.2679491924312281
 10
20.05959221219027
 20
4.983434547738141
  0
LWPOLYLINE
  5
1BB75
330
1BA69
100
AcDbEntity
  8
Webs
  6
HIDDENX2
100
AcDbPolyline
 90
        2
 70
     0
 43
0.0
 10
21.39015692584974
 20
5.218434547738127
 42
-1.000000000000007
 10
21.89015692584974
 20
5.218434547738127
  0
LWPOLYLINE
  5
1BB76
330
1BA69
100
AcDbEntity
  8
Webs
  6
HIDDENX2
100
AcDbPolyline
 90
        2
 70
     0
 43
0.0
 10
21.39015692584974
 20
4.968434547738127
 10
21.39015692584974
 20
5.218434547738127
  0
LWPOLYLINE
  5
1BB77
330
1BA69
100
AcDbEntity
  8
Webs
  6
HIDDENX2
100
AcDbPolyline
 90
        2
 70
     0
 43
0.0
 10
21.89015692584974
 20
4.968434547738127
 10
21.89015692584974
 20
5.218434547738127
  0
LWPOLYLINE
  5
1BB78
330
1BA69
100
AcDbEntity
  8
Webs
  6
HIDDENX2
100
AcDbPolyline
 90
        2
 70
     0
 43
0.0
 10
22.96249992584973
 20
4.968434547738127
 10
22.96249992584973
 20
5.405934547738098
  0
LWPOLYLINE
  5
1BB79
330
1BA69
100
AcDbEntity
  8
Webs
  6
HIDDENX2
100
AcDbPolyline
 90
        2
 70
     0
 43
0.0
 10
22.33749992584979
 20
4.968434547738127
 10
22.33749992584979
 20
5.405934547738098
  0
LWPOLYLINE
  5
1BB7A
330
1BA69
100
AcDbEntity
  8
Webs
  6
HIDDENX2
100
AcDbPolyline
 90
        2
 70
     0
 43
0.0
 10
22.96249992584973
 20
4.968434547738127
 10
22.96249992584973
 20
5.405934547738098
  0
LWPOLYLINE
  5
1BB7B
330
1BA69
100
AcDbEntity
  8
Webs
  6
HIDDENX2
100
AcDbPolyline
 90
        2
 70
     0
 43
0.0
 10
22.33749992584979
 20
5.405934547738098
 42
-0.9999999999999998
 10
22.96249992584973
 20
5.405934547738098
  0
LWPOLYLINE
  5
1BB7C
330
1BA69
100
AcDbEntity
  8
Webs
  6
HIDDENX2
100
AcDbPolyline
 90
        2
 70
     0
 43
0.0
 10
22.96249992584973
 20
4.968434547738127
 10
23.06249992584969
 20
4.968434547738127
  0
LWPOLYLINE
  5
1BB7D
330
1BA69
100
AcDbEntity
  8
Webs
  6
HIDDENX2
100
AcDbPolyline
 90
        2
 70
     0
 43
0.0
 10
22.96249992584973
 20
4.968434547738127
 10
23.40984292584977
 20
4.968434547738127
  0
LINE
  5
1BB7E
330
1BA69
100
AcDbEntity
  8
Webs
  6
HIDDENX2
100
AcDbLine
 10
24.66584992584979
 20
4.968434547738127
 30
0.0
 11
23.90984292584978
 21
4.968434547738127
 31
0.0
  0
LWPOLYLINE
  5
1BB7F
330
1BA69
100
AcDbEntity
  8
Webs
  6
HIDDENX2
100
AcDbPolyline
 90
        2
 70
     0
 43
0.0
 10
24.66584992584979
 20
4.968434547738127
 10
25.21442687739568
 20
4.968434547738127
  0
LINE
  5
1BB80
330
1BA69
100
AcDbEntity
  8
Webs
  6
HIDDENX2
100
AcDbLine
 10
25.89999992584978
 20
4.968434547738127
 30
0.0
 11
24.68124992584979
 21
4.968434547738127
 31
0.0
  0
LWPOLYLINE
  5
1BB81
330
1BA69
100
AcDbEntity
  8
Webs
  6
HIDDENX2
100
AcDbPolyline
 90
        2
 70
     0
 43
0.0
 10
25.89999992584978
 20
4.968434547738127
 10
27.64999992584973
 20
4.968434547738127
  0
LWPOLYLINE
  5
1BB82
330
1BA69
100
AcDbEntity
  8
Webs
  6
HIDDENX2
100
AcDbPolyline
 90
        2
 70
     0
 43
0.0
 10
25.87834992584976
 20
4.968434547738127
 10
25.87834992584976
 20
5.343434547738155
  0
LWPOLYLINE
  5
1BB83
330
1BA69
100
AcDbEntity
  8
Webs
  6
HIDDENX2
100
AcDbPolyline
 90
        2
 70
     0
 43
0.0
 10
25.12834992584982
 20
4.968434547738127
 10
25.12834992584982
 20
5.343434547738155
  0
LWPOLYLINE
  5
1BB84
330
1BA69
100
AcDbEntity
  8
Webs
  6
HIDDENX2
100
AcDbPolyline
 90
        2
 70
     0
 43
0.0
 10
25.76629221219031
 20
4.983434547738141
 10
25.7573691637362
 20
4.998889721019111
  0
LWPOLYLINE
  5
1BB85
330
1BA69
100
AcDbEntity
  8
Webs
  6
HIDDENX2
100
AcDbPolyline
 90
        2
 70
     0
 43
0.0
 10
25.24040763950916
 20
4.983434547738141
 10
25.24933068796338
 20
4.998889721019111
  0
LWPOLYLINE
  5
1BB86
330
1BA69
100
AcDbEntity
  8
Webs
  6
HIDDENX2
100
AcDbPolyline
 90
        2
 70
     0
 43
0.0
 10
25.87834992584976
 20
5.343434547738155
 42
0.9999999999999998
 10
25.12834992584982
 20
5.343434547738155
  0
LWPOLYLINE
  5
1BB87
330
1BA69
100
AcDbEntity
  8
Webs
  6
HIDDENX2
100
AcDbPolyline
 90
        2
 70
     0
 43
0.0
 10
25.75736916373614
 20
5.028889721019112
 42
0.2679491924311624
 10
25.75736916373614
 20
4.998889721019111
  0
LWPOLYLINE
  5
1BB88
330
1BA69
100
AcDbEntity
  8
Webs
  6
HIDDENX2
100
AcDbPolyline
 90
        2
 70
     0
 43
0.0
 10
25.87834992584976
 20
5.238434547738108
 10
25.7573691637362
 20
5.028889721019112
  0
LWPOLYLINE
  5
1BB89
330
1BA69
100
AcDbEntity
  8
Webs
  6
HIDDENX2
100
AcDbPolyline
 90
        2
 70
     0
 43
0.0
 10
25.24933068796338
 20
4.998889721019111
 42
0.2679491924311644
 10
25.24933068796338
 20
5.028889721019112
  0
LWPOLYLINE
  5
1BB8A
330
1BA69
100
AcDbEntity
  8
Webs
  6
HIDDENX2
100
AcDbPolyline
 90
        2
 70
     0
 43
0.0
 10
25.12834992584982
 20
5.238434547738108
 10
25.24933068796338
 20
5.028889721019112
  0
LWPOLYLINE
  5
1BB8B
330
1BA69
100
AcDbEntity
  8
Webs
  6
HIDDENX2
100
AcDbPolyline
 90
        2
 70
     0
 43
0.0
 10
25.76629221219031
 20
4.983434547738141
 42
0.2679491924312325
 10
25.7922729743039
 20
4.968434547738127
  0
LWPOLYLINE
  5
1BB8C
330
1BA69
100
AcDbEntity
  8
Webs
  6
HIDDENX2
100
AcDbPolyline
 90
        2
 70
     0
 43
0.0
 10
25.21442687739568
 20
4.968434547738127
 42
0.2679491924312281
 10
25.24040763950921
 20
4.983434547738141
  0
LWPOLYLINE
  5
1BB8D
330
1BA69
100
AcDbEntity
  8
Webs
  6
HIDDENX2
100
AcDbPolyline
 90
        2
 70
     0
 43
0.0
 10
23.90984292584978
 20
5.218434547738127
 42
1.000000000000007
 10
23.40984292584977
 20
5.218434547738127
  0
LWPOLYLINE
  5
1BB8E
330
1BA69
100
AcDbEntity
  8
Webs
  6
HIDDENX2
100
AcDbPolyline
 90
        2
 70
     0
 43
0.0
 10
23.90984292584978
 20
4.968434547738127
 10
23.90984292584978
 20
5.218434547738127
  0
LWPOLYLINE
  5
1BB8F
330
1BA69
100
AcDbEntity
  8
Webs
  6
HIDDENX2
100
AcDbPolyline
 90
        2
 70
     0
 43
0.0
 10
23.40984292584977
 20
4.968434547738127
 10
23.40984292584977
 20
5.218434547738127
  0
LWPOLYLINE
  5
1BB90
330
1BA69
100
AcDbEntity
  8
Block
100
AcDbPolyline
 90
        2
 70
     0
 43
0.0
 10
17.64999992584973
 20
16.34343454773821
 10
17.64999992584973
 20
0.3434345477381555
  0
LWPOLYLINE
  5
1BB91
330
1BA69
100
AcDbEntity
  8
Block
100
AcDbPolyline
 90
        2
 70
     0
 43
0.0
 10
27.64999992584967
 20
16.34343454773821
 10
27.64999992584967
 20
0.3434345477381555
  0
LWPOLYLINE
  5
1BB92
330
1BA69
100
AcDbEntity
  8
SteelBars
100
AcDbPolyline
 90
        2
 70
     0
 43
0.25
 10
26.09619398776692
 20
0.3434345477381555
 10
26.09619398776692
 20
48.34343454773833
  0
HATCH
  5
1BB93
330
1BA69
100
AcDbEntity
  8
SteelBars
100
AcDbHatch
 10
0.0
 20
0.0
 30
0.0
210
0.0
220
0.0
230
1.0
  2
SOLID
 70
     1
 71
     1
 91
        1
 92
        1
 93
        1
 72
     2
 10
25.50334992584979
 20
43.26843454773832
 40
0.3
 50
0.0
 51
360.0
 73
     1
 97
        1
330
1BB94
 75
     0
 76
     1
 98
        1
 10
-289.2044965311385
 20
-29.13991982306664
450
        0
451
        0
460
0.0
461
0.0
452
        0
462
0.0
453
        0
470

1001
ACAD
1010
0.0
1020
0.0
1030
0.0
  0
CIRCLE
  5
1BB94
102
{ACAD_REACTORS
330
1BB93
102
}
330
1BA69
100
AcDbEntity
  8
SteelBars
100
AcDbCircle
 10
25.50334992584979
 20
43.26843454773832
 30
0.0
 40
0.3
  0
HATCH
  5
1BB95
330
1BA69
100
AcDbEntity
  8
SteelBars
100
AcDbHatch
 10
0.0
 20
0.0
 30
0.0
210
0.0
220
0.0
230
1.0
  2
SOLID
 70
     1
 71
     1
 91
        1
 92
        1
 93
        1
 72
     2
 10
25.50334992584979
 20
27.26843454773827
 40
0.3
 50
0.0
 51
360.0
 73
     1
 97
        1
330
1BB96
 75
     0
 76
     1
 98
        1
 10
-289.2044965311385
 20
-45.13991982306669
450
        0
451
        0
460
0.0
461
0.0
452
        0
462
0.0
453
        0
470

1001
ACAD
1010
0.0
1020
0.0
1030
0.0
  0
CIRCLE
  5
1BB96
102
{ACAD_REACTORS
330
1BB95
102
}
330
1BA69
100
AcDbEntity
  8
SteelBars
100
AcDbCircle
 10
25.50334992584979
 20
27.26843454773827
 30
0.0
 40
0.3
  0
HATCH
  5
1BB97
330
1BA69
100
AcDbEntity
  8
SteelBars
100
AcDbHatch
 10
0.0
 20
0.0
 30
0.0
210
0.0
220
0.0
230
1.0
  2
SOLID
 70
     1
 71
     1
 91
        1
 92
        1
 93
        1
 72
     2
 10
25.50334992584979
 20
11.26843454773821
 40
0.3
 50
0.0
 51
360.0
 73
     1
 97
        1
330
1BB98
 75
     0
 76
     1
 98
        1
 10
-289.2044965311385
 20
-61.13991982306675
450
        0
451
        0
460
0.0
461
0.0
452
        0
462
0.0
453
        0
470

1001
ACAD
1010
0.0
1020
0.0
1030
0.0
  0
CIRCLE
  5
1BB98
102
{ACAD_REACTORS
330
1BB97
102
}
330
1BA69
100
AcDbEntity
  8
SteelBars
100
AcDbCircle
 10
25.50334992584979
 20
11.26843454773821
 30
0.0
 40
0.3
  0
HATCH
  5
1BB99
330
1BA69
100
AcDbEntity
  8
SteelBars
100
AcDbHatch
 10
0.0
 20
0.0
 30
0.0
210
0.0
220
0.0
230
1.0
  2
SOLID
 70
     1
 71
     1
 91
        1
 92
        1
 93
        1
 72
     2
 10
19.79664992584969
 20
11.26843454773821
 40
0.3
 50
0.0
 51
360.0
 73
     1
 97
        1
330
1BB9A
 75
     0
 76
     1
 98
        1
 10
-294.9111965311386
 20
-61.13991982306675
450
        0
451
        0
460
0.0
461
0.0
452
        0
462
0.0
453
        0
470

1001
ACAD
1010
0.0
1020
0.0
1030
0.0
  0
CIRCLE
  5
1BB9A
102
{ACAD_REACTORS
330
1BB99
102
}
330
1BA69
100
AcDbEntity
  8
SteelBars
100
AcDbCircle
 10
19.79664992584969
 20
11.26843454773821
 30
0.0
 40
0.3
  0
HATCH
  5
1BB9B
330
1BA69
100
AcDbEntity
  8
SteelBars
100
AcDbHatch
 10
0.0
 20
0.0
 30
0.0
210
0.0
220
0.0
230
1.0
  2
SOLID
 70
     1
 71
     1
 91
        1
 92
        1
 93
        1
 72
     2
 10
19.79664992584969
 20
27.26843454773827
 40
0.3
 50
0.0
 51
360.0
 73
     1
 97
        1
330
1BB9C
 75
     0
 76
     1
 98
        1
 10
-294.9111965311386
 20
-45.13991982306669
450
        0
451
        0
460
0.0
461
0.0
452
        0
462
0.0
453
        0
470

1001
ACAD
1010
0.0
1020
0.0
1030
0.0
  0
CIRCLE
  5
1BB9C
102
{ACAD_REACTORS
330
1BB9B
102
}
330
1BA69
100
AcDbEntity
  8
SteelBars
100
AcDbCircle
 10
19.79664992584969
 20
27.26843454773827
 30
0.0
 40
0.3
  0
HATCH
  5
1BB9D
330
1BA69
100
AcDbEntity
  8
SteelBars
100
AcDbHatch
 10
0.0
 20
0.0
 30
0.0
210
0.0
220
0.0
230
1.0
  2
SOLID
 70
     1
 71
     1
 91
        1
 92
        1
 93
        1
 72
     2
 10
19.79664992584969
 20
43.26843454773832
 40
0.3
 50
0.0
 51
360.0
 73
     1
 97
        1
330
1BB9E
 75
     0
 76
     1
 98
        1
 10
-294.9111965311386
 20
-29.13991982306664
450
        0
451
        0
460
0.0
461
0.0
452
        0
462
0.0
453
        0
470

1001
ACAD
1010
0.0
1020
0.0
1030
0.0
  0
CIRCLE
  5
1BB9E
102
{ACAD_REACTORS
330
1BB9D
102
}
330
1BA69
100
AcDbEntity
  8
SteelBars
100
AcDbCircle
 10
19.79664992584969
 20
43.26843454773832
 30
0.0
 40
0.3
  0
LWPOLYLINE
  5
1BB9F
330
1BA69
100
AcDbEntity
  8
SteelBars
100
AcDbPolyline
 90
        2
 70
     0
 43
0.25
 10
19.20380586393185
 20
0.3434345477381555
 10
19.20380586393185
 20
48.34343454773833
  0
LWPOLYLINE
  5
1BBA0
330
1BA69
100
AcDbEntity
  8
Dim
  6
Continuous
100
AcDbPolyline
 90
        6
 70
     0
 43
0.0
 10
13.89999992584961
 20
48.34343454773833
 10
22.39999992584953
 20
48.34343454773833
 10
22.52499992584933
 20
47.9999998703064
 10
22.77499992584944
 20
48.68686922516952
 10
22.89999992584953
 20
48.34343454773833
 10
31.39999992584967
 20
48.34343454773833
  0
LWPOLYLINE
  5
1BBA1
330
1BA69
100
AcDbEntity
  8
Dim
  6
Continuous
100
AcDbPolyline
 90
        6
 70
     0
 43
0.0
 10
13.89999992584961
 20
0.3434345477381555
 10
22.39999992584953
 20
0.3434345477381555
 10
22.52499992584933
 20
-0.0000001296937739
 10
22.77499992584944
 20
0.686869225169346
 10
22.89999992584953
 20
0.3434345477381555
 10
31.39999992584967
 20
0.3434345477381555
  0
LINE
  5
1BBA2
330
1BA69
100
AcDbEntity
  8
Dim
100
AcDbLine
 10
17.39999992584972
 20
21.70865445326324
 30
0.0
 11
17.39999992584972
 21
33.90865445326324
 31
0.0
  0
LINE
  5
1BBA3
330
1BA69
100
AcDbEntity
  8
Dim
100
AcDbLine
 10
17.27499992584973
 20
21.90865445326322
 30
0.0
 11
17.27499992584973
 21
33.70865445326324
 31
0.0
  0
LINE
  5
1BBA4
330
1BA69
100
AcDbEntity
  8
Dim
100
AcDbLine
 10
17.39999992584972
 20
33.90865445326324
 30
0.0
 11
16.19999992584972
 21
33.90865445326324
 31
0.0
  0
LINE
  5
1BBA5
330
1BA69
100
AcDbEntity
  8
Dim
100
AcDbLine
 10
17.27499992584973
 20
33.70865445326324
 30
0.0
 11
16.19999992584972
 21
33.70865445326324
 31
0.0
  0
LINE
  5
1BBA6
330
1BA69
100
AcDbEntity
  8
Dim
100
AcDbLine
 10
16.19999992584972
 20
33.90865445326324
 30
0.0
 11
16.19999992584971
 21
33.70865445326324
 31
0.0
  0
LINE
  5
1BBA7
330
1BA69
100
AcDbEntity
  8
Dim
100
AcDbLine
 10
17.39999992584972
 20
21.70865445326324
 30
0.0
 11
16.19999992584972
 21
21.70865445326324
 31
0.0
  0
LINE
  5
1BBA8
330
1BA69
100
AcDbEntity
  8
Dim
100
AcDbLine
 10
17.27499992584973
 20
21.90865445326323
 30
0.0
 11
16.19999992584972
 21
21.90865445326324
 31
0.0
  0
LINE
  5
1BBA9
330
1BA69
100
AcDbEntity
  8
Dim
100
AcDbLine
 10
16.19999992584972
 20
21.70865445326324
 30
0.0
 11
16.19999992584971
 21
21.90865445326324
 31
0.0
  0
LINE
  5
1BBAA
330
1BA69
100
AcDbEntity
  8
Dim
100
AcDbLine
 10
17.64999992584973
 20
33.90865445326324
 30
0.0
 11
17.64999992584973
 21
17.90865445326324
 31
0.0
  0
LINE
  5
1BBAB
330
1BA69
100
AcDbEntity
  8
Dim
100
AcDbLine
 10
17.39999992584972
 20
33.90865445326324
 30
0.0
 11
17.39999992584972
 21
17.90865445326324
 31
0.0
  0
LINE
  5
1BBAC
330
1BA69
100
AcDbEntity
  8
Dim
100
AcDbLine
 10
17.39999992584972
 20
33.90865445326324
 30
0.0
 11
17.64999992584973
 21
33.90865445326324
 31
0.0
  0
LINE
  5
1BBAD
330
1BA69
100
AcDbEntity
  8
Dim
100
AcDbLine
 10
17.39999992584972
 20
17.90865445326324
 30
0.0
 11
17.64999992584973
 21
17.90865445326324
 31
0.0
  0
LINE
  5
1BBAE
330
1BA69
100
AcDbEntity
  8
Block
100
AcDbLine
 10
14.89999992584961
 20
21.70865445326324
 30
0.0
 11
17.39999992584972
 21
21.70865445326324
 31
0.0
  0
LINE
  5
1BBAF
330
1BA69
100
AcDbEntity
  8
Dim
100
AcDbLine
 10
1.199999925849724
 20
21.70865445326324
 30
0.0
 11
1.199999925849724
 21
33.90865445326324
 31
0.0
  0
LINE
  5
1BBB0
330
1BA69
100
AcDbEntity
  8
Dim
100
AcDbLine
 10
1.074999925849724
 20
21.90865445326322
 30
0.0
 11
1.074999925849724
 21
33.70865445326324
 31
0.0
  0
LINE
  5
1BBB1
330
1BA69
100
AcDbEntity
  8
Dim
100
AcDbLine
 10
1.199999925849724
 20
33.90865445326324
 30
0.0
 11
-0.0000000741502788
 21
33.90865445326324
 31
0.0
  0
LINE
  5
1BBB2
330
1BA69
100
AcDbEntity
  8
Dim
100
AcDbLine
 10
1.074999925849724
 20
33.70865445326324
 30
0.0
 11
-0.0000000741502788
 21
33.70865445326324
 31
0.0
  0
LINE
  5
1BBB3
330
1BA69
100
AcDbEntity
  8
Dim
100
AcDbLine
 10
-0.0000000741502788
 20
33.90865445326324
 30
0.0
 11
-0.000000074150293
 21
33.70865445326324
 31
0.0
  0
LINE
  5
1BBB4
330
1BA69
100
AcDbEntity
  8
Dim
100
AcDbLine
 10
1.199999925849724
 20
21.70865445326324
 30
0.0
 11
-0.0000000741502788
 21
21.70865445326324
 31
0.0
  0
LINE
  5
1BBB5
330
1BA69
100
AcDbEntity
  8
Dim
100
AcDbLine
 10
1.074999925849724
 20
21.90865445326323
 30
0.0
 11
-0.0000000741502788
 21
21.90865445326324
 31
0.0
  0
LINE
  5
1BBB6
330
1BA69
100
AcDbEntity
  8
Dim
100
AcDbLine
 10
-0.0000000741502788
 20
21.70865445326324
 30
0.0
 11
-0.000000074150293
 21
21.90865445326324
 31
0.0
  0
LINE
  5
1BBB7
330
1BA69
100
AcDbEntity
  8
Dim
100
AcDbLine
 10
16.19999992584972
 20
33.90865445326324
 30
0.0
 11
1.199999925849724
 21
33.90865445326324
 31
0.0
  0
LINE
  5
1BBB8
330
1BA69
100
AcDbEntity
  8
Dim
100
AcDbLine
 10
16.19999992584971
 20
33.70865445326324
 30
0.0
 11
1.199999925849709
 21
33.70865445326324
 31
0.0
  0
LINE
  5
1BBB9
330
1BA69
100
AcDbEntity
  8
Dim
100
AcDbLine
 10
16.19999992584972
 20
21.70865445326324
 30
0.0
 11
1.199999925849724
 21
21.70865445326324
 31
0.0
  0
LINE
  5
1BBBA
330
1BA69
100
AcDbEntity
  8
Dim
100
AcDbLine
 10
16.19999992584972
 20
21.90865445326324
 30
0.0
 11
1.199999925849724
 21
21.90865445326324
 31
0.0
  0
ENDBLK
  5
1BBBE
330
1BA69
100
AcDbEntity
  8
0
100
AcDbBlockEnd
  0
BLOCK
  5
1BBC4
330
1BBBF
100
AcDbEntity
  8
0
100
AcDbBlockBegin
  2
A$C67486678
 70
     0
 10
0.0
 20
0.0
 30
0.0
  3
A$C67486678
  1

  0
LEADER
  5
1BBC0
330
1BBBF
100
AcDbEntity
  8
Text
100
AcDbLeader
  3
FBR
 73
     0
 40
1.0
 41
9.952380952380948
 76
     3
 10
5.707274235321115
 20
4.861245989670223
 30
0.0
 10
2.231623687699311
 20
0.0
 30
0.0
 10
0.0
 20
0.0
 30
0.0
340
1BBC1
1001
ACAD
1000
DSTYLE
1002
{
1070
    49
1040
0.18
1002
}
  0
MTEXT
  5
1BBC1
102
{ACAD_REACTORS
330
1BBC0
102
}
330
1BBBF
100
AcDbEntity
  8
Text
100
AcDbMText
 10
-0.2999999999999971
 20
0.0
 30
0.0
 40
1.0
 41
0.0
 46
0.0
 71
     6
 72
     1
  1
310x31 cont.
  7
Logix
 73
     1
 44
1.0
  0
ENDBLK
  5
1BBC5
330
1BBBF
100
AcDbEntity
  8
0
100
AcDbBlockEnd
  0
ENDSEC
  0
SECTION
  2
ENTITIES
  0
LWPOLYLINE
  5
7B6A
330
1F
100
AcDbEntity
  8
Dim
100
AcDbPolyline
 90
        4
 70
     1
 43
0.1150138116523132
 10
42.84994075800873
 20
80.96220218282542
 10
92.33804976885405
 20
80.96220218282542
 10
92.33804976885405
 20
16.91876699231977
 10
42.84994075800873
 20
16.91876699231977
  0
LWPOLYLINE
  5
7B8A
330
1F
100
AcDbEntity
  8
Dim
100
AcDbPolyline
 90
        2
 70
     1
 43
0.1150138116523132
 10
42.84994075800873
 20
23.69505743047865
 10
92.33804976885405
 20
23.69505743047865
  0
LWPOLYLINE
  5
7B8C
330
1F
100
AcDbEntity
  8
Dim
100
AcDbPolyline
 90
        2
 70
     0
 43
0.1150138116523132
 10
53.97115096684174
 20
16.91876699231977
 10
53.97115096684174
 20
23.69505743047865
  0
MTEXT
  5
7B96
330
1F
100
AcDbEntity
  8
Text
100
AcDbMText
 10
54.42255783938643
 20
23.27885773008104
 30
0.0
 40
0.4097367040113661
 41
14.28059432009269
 46
5.722576798258577
 71
     1
 72
     5
  3
{\fTimes New Roman|b0|i0|c0|p18;The drawing represented herein is to be used as a reference guide only;  the user shall check to ensure the drawing meets local building codes and construction practices by consulting local building officials and profe
  1
ssionals, including any additional requirements.  Logix reserves the right to make changes to the drawing without notice and assumes no liability in connection with the use of the drawing including modification, copying or distribution.}
 73
     1
 44
1.0
1001
ACAD
1000
ACAD_MTEXT_DEFINED_HEIGHT_BEGIN
1070
    46
1040
9.76950453337551
1000
ACAD_MTEXT_DEFINED_HEIGHT_END
  0
LWPOLYLINE
  5
7B97
330
1F
100
AcDbEntity
  8
Dim
100
AcDbPolyline
 90
        2
 70
     0
 43
0.1150138116523132
 10
68.84152770223507
 20
16.91876699231977
 10
68.84152770223507
 20
23.69505743047865
  0
LWPOLYLINE
  5
7BA4
330
1F
100
AcDbEntity
  8
Dim
100
AcDbPolyline
 90
        2
 70
     0
 43
0.1150138116523132
 10
68.92294648164249
 20
21.16951579879156
 10
92.33804976885405
 20
21.16951579879156
  0
LWPOLYLINE
  5
7BA5
330
1F
100
AcDbEntity
  8
Dim
100
AcDbPolyline
 90
        2
 70
     0
 43
0.1150138116523132
 10
82.93077435829454
 20
21.16951579879156
 10
82.93077435829454
 20
23.69505743047865
  0
TEXT
  5
7BA7
330
1F
100
AcDbEntity
  8
Dim
100
AcDbText
 10
69.21048101077326
 20
21.98184960058874
 30
0.0
 40
0.5750690582615665
  1
5.16.2.7
  7
Logix
100
AcDbText
  0
MTEXT
  5
7BA9
330
1F
100
AcDbEntity
  8
Dim
100
AcDbMText
 10
69.21048101077326
 20
23.40752290134788
 30
0.0
 40
0.431301793696175
 41
1.437672645653916
 46
0.5735367592225924
 71
     1
 72
     5
  1
Drawing:
  7
Logix
 73
     1
 44
1.0
1001
ACAD
1000
ACAD_MTEXT_DEFINED_HEIGHT_BEGIN
1070
    46
1040
0.9791340801206377
1000
ACAD_MTEXT_DEFINED_HEIGHT_END
  0
TEXT
  5
7BAB
330
1F
100
AcDbEntity
  8
Dim
100
AcDbText
 10
83.21830888742528
 20
21.98184960058874
 30
0.0
 40
0.5750690582615665
  1
Jul 30/13
  7
Logix
100
AcDbText
  0
MTEXT
  5
7BAC
330
1F
100
AcDbEntity
  8
Dim
100
AcDbMText
 10
83.21830888742528
 20
23.40752290134788
 30
0.0
 40
0.431301793696175
 41
1.437672645653916
 46
0.5735367592225924
 71
     1
 72
     5
  1
Date:
  7
Logix
 73
     1
 44
1.0
1001
ACAD
1000
ACAD_MTEXT_DEFINED_HEIGHT_BEGIN
1070
    46
1040
0.9791340801206377
1000
ACAD_MTEXT_DEFINED_HEIGHT_END
  0
MTEXT
  5
7BAD
330
1F
100
AcDbEntity
  8
Dim
100
AcDbMText
 10
69.21048101077326
 20
20.88198126966079
 30
0.0
 40
0.431301793696175
 41
1.437672645653916
 46
0.5735367592225924
 71
     1
 72
     5
  1
Title:
  7
Logix
 73
     1
 44
1.0
1001
ACAD
1000
ACAD_MTEXT_DEFINED_HEIGHT_BEGIN
1070
    46
1040
0.9791340801206377
1000
ACAD_MTEXT_DEFINED_HEIGHT_END
  0
MTEXT
  5
7BAF
102
{ACAD_XDICTIONARY
360
1DC6C
102
}
330
1F
100
AcDbEntity
  8
Dim
100
AcDbMText
 10
80.56809491143917
 20
18.72120731737211
 30
0.0
 40
0.622369110672691
 41
22.71522780133187
 46
3.127955402968023
 71
     5
 72
     5
  1
\pt0.93355;{\fFrutiger 45 Light|b1|i0|c0|p0;\H1.25x;HSS COLUMN ON LOGIX\H1.26667x; }
  7
Logix
 73
     1
 44
1.0
1001
ACAD
1000
ACAD_MTEXT_DEFINED_HEIGHT_BEGIN
1070
    46
1040
5.340002514040832
1000
ACAD_MTEXT_DEFINED_HEIGHT_END
  0
LINE
  5
81F1
330
1F
100
AcDbEntity
  8
Dim
100
AcDbLine
 10
42.79243385218257
 20
81.0197090886516
 30
0.0
 11
92.39555667468019
 21
81.0197090886516
 31
0.0
  0
LINE
  5
81F2
330
1F
100
AcDbEntity
  8
Dim
100
AcDbLine
 10
92.39555667468019
 20
81.0197090886516
 30
0.0
 11
92.39555667468019
 21
16.86126008649362
 31
0.0
  0
LINE
  5
81F3
330
1F
100
AcDbEntity
  8
Dim
100
AcDbLine
 10
92.39555667468019
 20
16.86126008649362
 30
0.0
 11
42.79243385218258
 21
16.86126008649361
 31
0.0
  0
LINE
  5
81F4
330
1F
100
AcDbEntity
  8
Dim
100
AcDbLine
 10
42.79243385218258
 20
16.86126008649361
 30
0.0
 11
42.79243385218257
 21
81.0197090886516
 31
0.0
  0
MTEXT
  5
19A2B
330
1F
100
AcDbEntity
  8
Dim
100
AcDbMText
 10
43.45227406947762
 20
79.78133988297532
 30
0.0
 40
0.65
 41
20.02347122060795
 46
12.11482211462029
 71
     1
 72
     5
  1
{\fSansSerif|b1|i0|c2|p2;\LNOTES:}\P\PSee Section 6 - Engineering in the LOGIX Design Manual or the LOGIX Field Manual for reinforcement details.
  7
Logix
 73
     1
 44
1.0
1001
ACAD
1000
ACAD_MTEXT_DEFINED_HEIGHT_BEGIN
1070
    46
1040
7.77587056850815
1000
ACAD_MTEXT_DEFINED_HEIGHT_END
  0
LINE
  5
1D67B
330
1F
100
AcDbEntity
  8
SteelBars
100
AcDbLine
 10
66.02534414740958
 20
61.17936787087799
 30
0.0
 11
66.40034414740958
 21
61.17936787087799
 31
0.0
  0
LINE
  5
1D67D
102
{ACAD_REACTORS
330
1D863
102
}
330
1F
100
AcDbEntity
  8
SteelBars
100
AcDbLine
 10
60.21284414740958
 20
61.17936787087799
 30
0.0
 11
60.21284414740958
 21
61.80436787087799
 31
0.0
  0
LINE
  5
1D67E
102
{ACAD_REACTORS
330
1D863
330
1DB84
102
}
330
1F
100
AcDbEntity
  8
SteelBars
100
AcDbLine
 10
60.21284414740958
 20
61.80436787087799
 30
0.0
 11
72.21284414740958
 21
61.80436787087799
 31
0.0
  0
LINE
  5
1D67F
102
{ACAD_REACTORS
330
1D863
102
}
330
1F
100
AcDbEntity
  8
SteelBars
100
AcDbLine
 10
72.21284414740958
 20
61.80436787087799
 30
0.0
 11
72.21284414740958
 21
61.17936787087799
 31
0.0
  0
LINE
  5
1D680
330
1F
100
AcDbEntity
  8
SteelBars
100
AcDbLine
 10
72.21284414740958
 20
61.17936787087799
 30
0.0
 11
60.21284414740958
 21
61.17936787087799
 31
0.0
  0
INSERT
  5
1D681
330
1F
100
AcDbEntity
  8
SteelBars
100
AcDbBlockReference
 66
     1
  2
NUT_HEX_0D5_SV
 10
70.21827272862791
 20
61.83898603216758
 30
0.0
 41
1.25
 42
1.25
 43
1.25
 50
90.0
  0
ATTRIB
  5
1D682
330
1D681
100
AcDbEntity
  8
0
100
AcDbText
 10
71.44239772862793
 20
61.83898603216758
 30
0.0
 40
0.0271010395906063
  1

 50
90.0
 41
0.8
  7
ATTR
100
AcDbAttribute
280
     0
  2
ESTCODE
 70
     9
280
     0
  0
SEQEND
  5
1D683
330
1D681
100
AcDbEntity
  8
SteelBars
  0
LWPOLYLINE
  5
1D684
102
{ACAD_REACTORS
330
1D863
102
}
330
1F
100
AcDbEntity
  8
SteelBars
100
AcDbPolyline
 90
        2
 70
     0
 43
0.0
 10
69.43702272862791
 20
61.80436787087799
 10
70.99952272862791
 20
61.80436787087799
  0
INSERT
  5
1D685
330
1F
100
AcDbEntity
  8
SteelBars
100
AcDbBlockReference
 66
     1
  2
NUT_HEX_0D5_SV
 10
62.23802342786862
 20
61.83898603216758
 30
0.0
 41
-1.25
 42
1.25
 43
1.25
 50
270.0
  0
ATTRIB
  5
1D686
330
1D685
100
AcDbEntity
  8
0
100
AcDbText
 10
61.01389842786861
 20
61.83898603216758
 30
0.0
 40
0.0271010395906063
  1

 50
90.0
 41
0.8
  7
ATTR
100
AcDbAttribute
280
     0
  2
ESTCODE
 70
     9
280
     0
  0
SEQEND
  5
1D687
330
1D685
100
AcDbEntity
  8
SteelBars
  0
LWPOLYLINE
  5
1D688
102
{ACAD_REACTORS
330
1D863
102
}
330
1F
100
AcDbEntity
  8
SteelBars
100
AcDbPolyline
 90
        2
 70
     0
 43
0.0
 10
63.01927342786862
 20
61.80436787087799
 10
61.45677342786862
 20
61.80436787087799
  0
HATCH
  5
1D689
330
1F
100
AcDbEntity
  8
Drywall
100
AcDbHatch
 10
0.0
 20
0.0
 30
0.0
210
0.0
220
0.0
230
1.0
  2
ANSI38
 70
     0
 71
     0
 91
        3
 92
        7
 72
     0
 73
     1
 93
        4
 10
62.23802255934348
 20
60.17936787087798
 10
62.23802255934348
 20
61.17936787087801
 10
60.21284414740957
 20
61.17936787087798
 10
59.58154672661251
 20
60.17936787087799
 97
        0
 92
        7
 72
     0
 73
     1
 93
        4
 10
62.23802255934348
 20
61.17936787087798
 10
62.23802255934348
 20
60.17936787087798
 10
70.21827359715306
 20
60.17936787087799
 10
70.21827359715306
 20
61.17936787087801
 97
        0
 92
        7
 72
     0
 73
     1
 93
        4
 10
70.21827359715306
 20
61.17936787087801
 10
70.21827359715306
 20
60.17936787087798
 10
72.84414156820663
 20
60.17936787087801
 10
72.21284414740958
 20
61.17936787087801
 97
        0
 75
     0
 76
     1
 52
0.0
 41
2.0
 77
     0
 78
     2
 53
45.0
 43
-16.52987088019275
 44
0.8856573965932454
 45
-0.1767766952966369
 46
0.1767766952966369
 79
     0
 53
135.0
 43
-16.52987088019275
 44
0.8856573965932454
 45
-0.5303300858899106
 46
0.1767766952966369
 79
     2
 49
0.625
 49
-0.375
 47
0.0147463556076723
 98
        3
 10
62.31508070050657
 20
60.81093216133982
 10
65.14910612251404
 20
60.73720041952507
 10
71.39281749102602
 20
60.88466390315457
1001
ACAD
1010
0.0
1020
0.0
1030
0.0
  0
LINE
  5
1D68A
330
1F
100
AcDbEntity
  8
Drywall
100
AcDbLine
 10
59.58154672661251
 20
60.17936787087799
 30
0.0
 11
60.21284414740958
 21
61.17936787087799
 31
0.0
  0
LINE
  5
1D68B
330
1F
100
AcDbEntity
  8
Drywall
100
AcDbLine
 10
72.84414156820665
 20
60.17936787087799
 30
0.0
 11
72.21284414740958
 21
61.17936787087799
 31
0.0
  0
LINE
  5
1D68C
102
{ACAD_REACTORS
330
1D863
102
}
330
1F
100
AcDbEntity
  8
Drywall
100
AcDbLine
 10
60.21284414740958
 20
61.17936787087799
 30
0.0
 11
72.21284414740958
 21
61.17936787087799
 31
0.0
  0
LINE
  5
1D68D
102
{ACAD_REACTORS
330
1D895
102
}
330
1F
100
AcDbEntity
  8
Drywall
100
AcDbLine
 10
72.84414156820665
 20
60.17936787087799
 30
0.0
 11
59.58154672661251
 21
60.17936787087799
 31
0.0
  0
LWPOLYLINE
  5
1D68E
102
{ACAD_REACTORS
330
1D863
102
}
330
1F
100
AcDbEntity
  8
SteelBars
100
AcDbPolyline
 90
        2
 70
     0
 43
0.5
 10
70.21827359715306
 20
63.27399253216722
 10
70.21827359715306
 20
46.9276408868107
  0
LWPOLYLINE
  5
1D68F
102
{ACAD_REACTORS
330
1D863
102
}
330
1F
100
AcDbEntity
  8
SteelBars
100
AcDbPolyline
 90
        2
 70
     0
 43
0.5
 10
62.23802255934348
 20
63.27399253216722
 10
62.23802255934348
 20
46.9276408868107
  0
LINE
  5
1D706
102
{ACAD_REACTORS
330
1D895
102
}
330
1F
100
AcDbEntity
  8
Block
100
AcDbLine
 10
58.46284414740949
 20
60.17936787087799
 30
0.0
 11
61.21284414740961
 21
60.17936787087799
 31
0.0
  0
LINE
  5
1D707
102
{ACAD_REACTORS
330
1D895
102
}
330
1F
100
AcDbEntity
  8
Block
100
AcDbLine
 10
71.21284414740955
 20
60.17936787087799
 30
0.0
 11
73.96284414740955
 21
60.17936787087799
 31
0.0
  0
LWPOLYLINE
  5
1D708
330
1F
100
AcDbEntity
  8
Webs
  6
HIDDENX2
100
AcDbPolyline
 90
        2
 70
     0
 43
0.0
 10
70.39386110897424
 20
54.05436787087797
 10
62.05124414740959
 20
54.05436787087797
  0
LWPOLYLINE
  5
1D709
330
1F
100
AcDbEntity
  8
Webs
  6
HIDDENX2
100
AcDbPolyline
 90
        2
 70
     0
 43
0.0
 10
70.37444414740955
 20
50.30436787087797
 10
62.05124414740959
 20
50.30436787087797
  0
LWPOLYLINE
  5
1D70A
330
1F
100
AcDbEntity
  8
Webs
  6
HIDDENX2
100
AcDbPolyline
 90
        2
 70
     0
 43
0.0
 10
65.90034414740967
 20
55.55436787087799
 10
65.45300114740962
 20
55.55436787087799
  0
LINE
  5
1D70B
330
1F
100
AcDbEntity
  8
Webs
  6
HIDDENX2
100
AcDbLine
 10
64.19699414740958
 20
55.55436787087799
 30
0.0
 11
64.95300114740962
 21
55.55436787087799
 31
0.0
  0
LWPOLYLINE
  5
1D70C
330
1F
100
AcDbEntity
  8
Webs
  6
HIDDENX2
100
AcDbPolyline
 90
        2
 70
     0
 43
0.0
 10
64.19699414740958
 20
55.55436787087799
 10
63.64841719586369
 20
55.55436787087799
  0
LINE
  5
1D70D
330
1F
100
AcDbEntity
  8
Webs
  6
HIDDENX2
100
AcDbLine
 10
62.96284414740961
 20
55.55436787087799
 30
0.0
 11
64.18159414740961
 21
55.55436787087799
 31
0.0
  0
LWPOLYLINE
  5
1D70E
330
1F
100
AcDbEntity
  8
Webs
  6
HIDDENX2
100
AcDbPolyline
 90
        2
 70
     0
 43
0.0
 10
62.96284414740961
 20
55.55436787087799
 10
61.21284414740967
 20
55.55436787087799
  0
LWPOLYLINE
  5
1D70F
330
1F
100
AcDbEntity
  8
Webs
  6
HIDDENX2
100
AcDbPolyline
 90
        2
 70
     0
 43
0.0
 10
62.98449414740961
 20
55.55436787087799
 10
62.98449414740961
 20
55.17936787087797
  0
LWPOLYLINE
  5
1D710
330
1F
100
AcDbEntity
  8
Webs
  6
HIDDENX2
100
AcDbPolyline
 90
        2
 70
     0
 43
0.0
 10
63.73449414740955
 20
55.55436787087799
 10
63.73449414740955
 20
55.17936787087797
  0
LWPOLYLINE
  5
1D711
330
1F
100
AcDbEntity
  8
Webs
  6
HIDDENX2
100
AcDbPolyline
 90
        2
 70
     0
 43
0.0
 10
63.09655186106906
 20
55.53936787087798
 10
63.10547490952316
 20
55.52391269759701
  0
LWPOLYLINE
  5
1D712
330
1F
100
AcDbEntity
  8
Webs
  6
HIDDENX2
100
AcDbPolyline
 90
        2
 70
     0
 43
0.0
 10
63.62243643375021
 20
55.53936787087798
 10
63.61351338529598
 20
55.52391269759701
  0
LWPOLYLINE
  5
1D713
330
1F
100
AcDbEntity
  8
Webs
  6
HIDDENX2
100
AcDbPolyline
 90
        2
 70
     0
 43
0.0
 10
62.98449414740961
 20
55.17936787087797
 42
0.9999999999999998
 10
63.73449414740955
 20
55.17936787087797
  0
LWPOLYLINE
  5
1D714
330
1F
100
AcDbEntity
  8
Webs
  6
HIDDENX2
100
AcDbPolyline
 90
        2
 70
     0
 43
0.0
 10
63.10547490952322
 20
55.49391269759701
 42
0.2679491924311624
 10
63.10547490952322
 20
55.52391269759701
  0
LWPOLYLINE
  5
1D715
330
1F
100
AcDbEntity
  8
Webs
  6
HIDDENX2
100
AcDbPolyline
 90
        2
 70
     0
 43
0.0
 10
62.98449414740961
 20
55.28436787087802
 10
63.10547490952316
 20
55.49391269759701
  0
LWPOLYLINE
  5
1D716
330
1F
100
AcDbEntity
  8
Webs
  6
HIDDENX2
100
AcDbPolyline
 90
        2
 70
     0
 43
0.0
 10
63.61351338529598
 20
55.52391269759701
 42
0.2679491924311644
 10
63.61351338529598
 20
55.49391269759701
  0
LWPOLYLINE
  5
1D717
330
1F
100
AcDbEntity
  8
Webs
  6
HIDDENX2
100
AcDbPolyline
 90
        2
 70
     0
 43
0.0
 10
63.73449414740955
 20
55.28436787087802
 10
63.61351338529598
 20
55.49391269759701
  0
LWPOLYLINE
  5
1D718
330
1F
100
AcDbEntity
  8
Webs
  6
HIDDENX2
100
AcDbPolyline
 90
        2
 70
     0
 43
0.0
 10
63.09655186106906
 20
55.53936787087798
 42
0.2679491924312325
 10
63.07057109895547
 20
55.55436787087799
  0
LWPOLYLINE
  5
1D719
330
1F
100
AcDbEntity
  8
Webs
  6
HIDDENX2
100
AcDbPolyline
 90
        2
 70
     0
 43
0.0
 10
63.64841719586369
 20
55.55436787087799
 42
0.2679491924312281
 10
63.62243643375015
 20
55.53936787087798
  0
LWPOLYLINE
  5
1D71A
330
1F
100
AcDbEntity
  8
Webs
  6
HIDDENX2
100
AcDbPolyline
 90
        2
 70
     0
 43
0.0
 10
64.95300114740962
 20
55.304367870878
 42
1.000000000000007
 10
65.45300114740962
 20
55.304367870878
  0
LWPOLYLINE
  5
1D71B
330
1F
100
AcDbEntity
  8
Webs
  6
HIDDENX2
100
AcDbPolyline
 90
        2
 70
     0
 43
0.0
 10
64.95300114740962
 20
55.55436787087799
 10
64.95300114740962
 20
55.304367870878
  0
LWPOLYLINE
  5
1D71C
330
1F
100
AcDbEntity
  8
Webs
  6
HIDDENX2
100
AcDbPolyline
 90
        2
 70
     0
 43
0.0
 10
65.45300114740962
 20
55.55436787087799
 10
65.45300114740962
 20
55.304367870878
  0
LWPOLYLINE
  5
1D71D
330
1F
100
AcDbEntity
  8
Webs
  6
HIDDENX2
100
AcDbPolyline
 90
        2
 70
     0
 43
0.0
 10
66.52534414740961
 20
55.55436787087799
 10
66.52534414740961
 20
55.11686787087803
  0
LWPOLYLINE
  5
1D71E
330
1F
100
AcDbEntity
  8
Webs
  6
HIDDENX2
100
AcDbPolyline
 90
        2
 70
     0
 43
0.0
 10
65.90034414740967
 20
55.55436787087799
 10
65.90034414740967
 20
55.11686787087803
  0
LWPOLYLINE
  5
1D71F
330
1F
100
AcDbEntity
  8
Webs
  6
HIDDENX2
100
AcDbPolyline
 90
        2
 70
     0
 43
0.0
 10
66.52534414740961
 20
55.55436787087799
 10
66.52534414740961
 20
55.11686787087803
  0
LWPOLYLINE
  5
1D720
330
1F
100
AcDbEntity
  8
Webs
  6
HIDDENX2
100
AcDbPolyline
 90
        2
 70
     0
 43
0.0
 10
65.90034414740967
 20
55.11686787087803
 42
0.9999999999999998
 10
66.52534414740961
 20
55.11686787087803
  0
LWPOLYLINE
  5
1D721
330
1F
100
AcDbEntity
  8
Webs
  6
HIDDENX2
100
AcDbPolyline
 90
        2
 70
     0
 43
0.0
 10
66.52534414740961
 20
55.55436787087799
 10
66.62534414740957
 20
55.55436787087799
  0
LWPOLYLINE
  5
1D722
102
{ACAD_REACTORS
330
1D895
102
}
330
1F
100
AcDbEntity
  8
Block
100
AcDbPolyline
 90
        2
 70
     0
 43
0.0
 10
58.46284414740949
 20
60.17936787087799
 10
58.46284414740949
 20
44.17936787087794
  0
LWPOLYLINE
  5
1D723
102
{ACAD_REACTORS
330
1D895
102
}
330
1F
100
AcDbEntity
  8
Block
100
AcDbPolyline
 90
        2
 70
     0
 43
0.0
 10
73.96284414740955
 20
60.17936787087799
 10
73.96284414740955
 20
44.17936787087794
  0
LINE
  5
1D724
102
{ACAD_REACTORS
330
1D895
102
}
330
1F
100
AcDbEntity
  8
Block
100
AcDbLine
 10
58.46284414740949
 20
44.17936787087794
 30
0.0
 11
61.21284414740961
 21
44.17936787087794
 31
0.0
  0
LINE
  5
1D725
102
{ACAD_REACTORS
330
1D895
102
}
330
1F
100
AcDbEntity
  8
Block
100
AcDbLine
 10
71.21284414740955
 20
44.17936787087794
 30
0.0
 11
73.96284414740955
 21
44.17936787087794
 31
0.0
  0
LWPOLYLINE
  5
1D726
330
1F
100
AcDbEntity
  8
Webs
100
AcDbPolyline
 90
        2
 70
     0
 43
0.0
 10
61.21284414740961
 20
50.79672972016737
 42
0.2719204724283024
 10
62.05124414740959
 20
50.30436787087797
  0
LWPOLYLINE
  5
1D727
330
1F
100
AcDbEntity
  8
Webs
100
AcDbPolyline
 90
        2
 70
     0
 43
0.0
 10
62.05124414740959
 20
54.05436787087797
 42
0.2719204724283024
 10
61.21284414740961
 20
53.56200602158856
  0
LWPOLYLINE
  5
1D728
330
1F
100
AcDbEntity
  8
Webs
100
AcDbPolyline
 90
        2
 70
     0
 43
0.0
 10
71.23226110897426
 20
53.56200602158856
 42
0.2719204724283024
 10
70.39386110897422
 20
54.05436787087797
  0
LWPOLYLINE
  5
1D729
330
1F
100
AcDbEntity
  8
Webs
100
AcDbPolyline
 90
        2
 70
     0
 43
0.0
 10
70.37444414740952
 20
50.30436787087797
 42
0.2719204724283024
 10
71.21284414740955
 20
50.79672972016737
  0
LWPOLYLINE
  5
1D72A
330
1F
100
AcDbEntity
  8
Webs
  6
HIDDENX2
100
AcDbPolyline
 90
        2
 70
     0
 43
0.0
 10
66.52534414740961
 20
55.55436787087799
 10
66.97268714740966
 20
55.55436787087799
  0
LINE
  5
1D72B
330
1F
100
AcDbEntity
  8
Webs
  6
HIDDENX2
100
AcDbLine
 10
68.22869414740967
 20
55.55436787087799
 30
0.0
 11
67.47268714740966
 21
55.55436787087799
 31
0.0
  0
LWPOLYLINE
  5
1D72C
330
1F
100
AcDbEntity
  8
Webs
  6
HIDDENX2
100
AcDbPolyline
 90
        2
 70
     0
 43
0.0
 10
68.22869414740967
 20
55.55436787087799
 10
68.77727109895556
 20
55.55436787087799
  0
LINE
  5
1D72D
330
1F
100
AcDbEntity
  8
Webs
  6
HIDDENX2
100
AcDbLine
 10
69.46284414740967
 20
55.55436787087799
 30
0.0
 11
68.24409414740967
 21
55.55436787087799
 31
0.0
  0
LWPOLYLINE
  5
1D72E
330
1F
100
AcDbEntity
  8
Webs
  6
HIDDENX2
100
AcDbPolyline
 90
        2
 70
     0
 43
0.0
 10
69.46284414740967
 20
55.55436787087799
 10
71.21284414740961
 20
55.55436787087799
  0
LWPOLYLINE
  5
1D72F
330
1F
100
AcDbEntity
  8
Webs
  6
HIDDENX2
100
AcDbPolyline
 90
        2
 70
     0
 43
0.0
 10
69.44119414740964
 20
55.55436787087799
 10
69.44119414740964
 20
55.17936787087797
  0
LWPOLYLINE
  5
1D730
330
1F
100
AcDbEntity
  8
Webs
  6
HIDDENX2
100
AcDbPolyline
 90
        2
 70
     0
 43
0.0
 10
68.6911941474097
 20
55.55436787087799
 10
68.6911941474097
 20
55.17936787087797
  0
LWPOLYLINE
  5
1D731
330
1F
100
AcDbEntity
  8
Webs
  6
HIDDENX2
100
AcDbPolyline
 90
        2
 70
     0
 43
0.0
 10
69.3291364337502
 20
55.53936787087798
 10
69.32021338529608
 20
55.52391269759701
  0
LWPOLYLINE
  5
1D732
330
1F
100
AcDbEntity
  8
Webs
  6
HIDDENX2
100
AcDbPolyline
 90
        2
 70
     0
 43
0.0
 10
68.80325186106905
 20
55.53936787087798
 10
68.81217490952327
 20
55.52391269759701
  0
LWPOLYLINE
  5
1D733
330
1F
100
AcDbEntity
  8
Webs
  6
HIDDENX2
100
AcDbPolyline
 90
        2
 70
     0
 43
0.0
 10
69.44119414740964
 20
55.17936787087797
 42
-0.9999999999999998
 10
68.6911941474097
 20
55.17936787087797
  0
LWPOLYLINE
  5
1D734
330
1F
100
AcDbEntity
  8
Webs
  6
HIDDENX2
100
AcDbPolyline
 90
        2
 70
     0
 43
0.0
 10
69.32021338529603
 20
55.49391269759701
 42
-0.2679491924311624
 10
69.32021338529603
 20
55.52391269759701
  0
LWPOLYLINE
  5
1D735
330
1F
100
AcDbEntity
  8
Webs
  6
HIDDENX2
100
AcDbPolyline
 90
        2
 70
     0
 43
0.0
 10
69.44119414740964
 20
55.28436787087802
 10
69.32021338529608
 20
55.49391269759701
  0
LWPOLYLINE
  5
1D736
330
1F
100
AcDbEntity
  8
Webs
  6
HIDDENX2
100
AcDbPolyline
 90
        2
 70
     0
 43
0.0
 10
68.81217490952327
 20
55.52391269759701
 42
-0.2679491924311644
 10
68.81217490952327
 20
55.49391269759701
  0
LWPOLYLINE
  5
1D737
330
1F
100
AcDbEntity
  8
Webs
  6
HIDDENX2
100
AcDbPolyline
 90
        2
 70
     0
 43
0.0
 10
68.6911941474097
 20
55.28436787087802
 10
68.81217490952327
 20
55.49391269759701
  0
LWPOLYLINE
  5
1D738
330
1F
100
AcDbEntity
  8
Webs
  6
HIDDENX2
100
AcDbPolyline
 90
        2
 70
     0
 43
0.0
 10
69.3291364337502
 20
55.53936787087798
 42
-0.2679491924312325
 10
69.35511719586378
 20
55.55436787087799
  0
LWPOLYLINE
  5
1D739
330
1F
100
AcDbEntity
  8
Webs
  6
HIDDENX2
100
AcDbPolyline
 90
        2
 70
     0
 43
0.0
 10
68.77727109895556
 20
55.55436787087799
 42
-0.2679491924312281
 10
68.8032518610691
 20
55.53936787087798
  0
LWPOLYLINE
  5
1D73A
330
1F
100
AcDbEntity
  8
Webs
  6
HIDDENX2
100
AcDbPolyline
 90
        2
 70
     0
 43
0.0
 10
67.47268714740966
 20
55.304367870878
 42
-1.000000000000007
 10
66.97268714740966
 20
55.304367870878
  0
LWPOLYLINE
  5
1D73B
330
1F
100
AcDbEntity
  8
Webs
  6
HIDDENX2
100
AcDbPolyline
 90
        2
 70
     0
 43
0.0
 10
67.47268714740966
 20
55.55436787087799
 10
67.47268714740966
 20
55.304367870878
  0
LWPOLYLINE
  5
1D73C
330
1F
100
AcDbEntity
  8
Webs
  6
HIDDENX2
100
AcDbPolyline
 90
        2
 70
     0
 43
0.0
 10
66.97268714740966
 20
55.55436787087799
 10
66.97268714740966
 20
55.304367870878
  0
LWPOLYLINE
  5
1D73D
330
1F
100
AcDbEntity
  8
Webs
  6
HIDDENX2
100
AcDbPolyline
 90
        2
 70
     0
 43
0.0
 10
65.90034414740967
 20
48.80436787087791
 10
65.45300114740962
 20
48.80436787087791
  0
LINE
  5
1D73E
330
1F
100
AcDbEntity
  8
Webs
  6
HIDDENX2
100
AcDbLine
 10
64.19699414740958
 20
48.80436787087791
 30
0.0
 11
64.95300114740962
 21
48.80436787087791
 31
0.0
  0
LWPOLYLINE
  5
1D73F
330
1F
100
AcDbEntity
  8
Webs
  6
HIDDENX2
100
AcDbPolyline
 90
        2
 70
     0
 43
0.0
 10
64.19699414740958
 20
48.80436787087791
 10
63.64841719586369
 20
48.80436787087791
  0
LINE
  5
1D740
330
1F
100
AcDbEntity
  8
Webs
  6
HIDDENX2
100
AcDbLine
 10
62.96284414740961
 20
48.80436787087791
 30
0.0
 11
64.18159414740961
 21
48.80436787087791
 31
0.0
  0
LWPOLYLINE
  5
1D741
330
1F
100
AcDbEntity
  8
Webs
  6
HIDDENX2
100
AcDbPolyline
 90
        2
 70
     0
 43
0.0
 10
62.96284414740961
 20
48.80436787087791
 10
61.21284414740967
 20
48.80436787087791
  0
LWPOLYLINE
  5
1D742
330
1F
100
AcDbEntity
  8
Webs
  6
HIDDENX2
100
AcDbPolyline
 90
        2
 70
     0
 43
0.0
 10
62.98449414740961
 20
48.80436787087791
 10
62.98449414740961
 20
49.17936787087794
  0
LWPOLYLINE
  5
1D743
330
1F
100
AcDbEntity
  8
Webs
  6
HIDDENX2
100
AcDbPolyline
 90
        2
 70
     0
 43
0.0
 10
63.73449414740955
 20
48.80436787087791
 10
63.73449414740955
 20
49.17936787087794
  0
LWPOLYLINE
  5
1D744
330
1F
100
AcDbEntity
  8
Webs
  6
HIDDENX2
100
AcDbPolyline
 90
        2
 70
     0
 43
0.0
 10
63.09655186106906
 20
48.81936787087792
 10
63.10547490952316
 20
48.83482304415889
  0
LWPOLYLINE
  5
1D745
330
1F
100
AcDbEntity
  8
Webs
  6
HIDDENX2
100
AcDbPolyline
 90
        2
 70
     0
 43
0.0
 10
63.62243643375021
 20
48.81936787087792
 10
63.61351338529598
 20
48.83482304415889
  0
LWPOLYLINE
  5
1D746
330
1F
100
AcDbEntity
  8
Webs
  6
HIDDENX2
100
AcDbPolyline
 90
        2
 70
     0
 43
0.0
 10
62.98449414740961
 20
49.17936787087794
 42
-0.9999999999999998
 10
63.73449414740955
 20
49.17936787087794
  0
LWPOLYLINE
  5
1D747
330
1F
100
AcDbEntity
  8
Webs
  6
HIDDENX2
100
AcDbPolyline
 90
        2
 70
     0
 43
0.0
 10
63.10547490952322
 20
48.86482304415889
 42
-0.2679491924311624
 10
63.10547490952322
 20
48.83482304415889
  0
LWPOLYLINE
  5
1D748
330
1F
100
AcDbEntity
  8
Webs
  6
HIDDENX2
100
AcDbPolyline
 90
        2
 70
     0
 43
0.0
 10
62.98449414740961
 20
49.07436787087789
 10
63.10547490952316
 20
48.86482304415889
  0
LWPOLYLINE
  5
1D749
330
1F
100
AcDbEntity
  8
Webs
  6
HIDDENX2
100
AcDbPolyline
 90
        2
 70
     0
 43
0.0
 10
63.61351338529598
 20
48.83482304415889
 42
-0.2679491924311644
 10
63.61351338529598
 20
48.86482304415889
  0
LWPOLYLINE
  5
1D74A
330
1F
100
AcDbEntity
  8
Webs
  6
HIDDENX2
100
AcDbPolyline
 90
        2
 70
     0
 43
0.0
 10
63.73449414740955
 20
49.07436787087789
 10
63.61351338529598
 20
48.86482304415889
  0
LWPOLYLINE
  5
1D74B
330
1F
100
AcDbEntity
  8
Webs
  6
HIDDENX2
100
AcDbPolyline
 90
        2
 70
     0
 43
0.0
 10
63.09655186106906
 20
48.81936787087792
 42
-0.2679491924312325
 10
63.07057109895547
 20
48.80436787087791
  0
LWPOLYLINE
  5
1D74C
330
1F
100
AcDbEntity
  8
Webs
  6
HIDDENX2
100
AcDbPolyline
 90
        2
 70
     0
 43
0.0
 10
63.64841719586369
 20
48.80436787087791
 42
-0.2679491924312281
 10
63.62243643375015
 20
48.81936787087792
  0
LWPOLYLINE
  5
1D74D
330
1F
100
AcDbEntity
  8
Webs
  6
HIDDENX2
100
AcDbPolyline
 90
        2
 70
     0
 43
0.0
 10
64.95300114740962
 20
49.05436787087791
 42
-1.000000000000007
 10
65.45300114740962
 20
49.05436787087791
  0
LWPOLYLINE
  5
1D74E
330
1F
100
AcDbEntity
  8
Webs
  6
HIDDENX2
100
AcDbPolyline
 90
        2
 70
     0
 43
0.0
 10
64.95300114740962
 20
48.80436787087791
 10
64.95300114740962
 20
49.05436787087791
  0
LWPOLYLINE
  5
1D74F
330
1F
100
AcDbEntity
  8
Webs
  6
HIDDENX2
100
AcDbPolyline
 90
        2
 70
     0
 43
0.0
 10
65.45300114740962
 20
48.80436787087791
 10
65.45300114740962
 20
49.05436787087791
  0
LWPOLYLINE
  5
1D750
330
1F
100
AcDbEntity
  8
Webs
  6
HIDDENX2
100
AcDbPolyline
 90
        2
 70
     0
 43
0.0
 10
66.52534414740961
 20
48.80436787087791
 10
66.52534414740961
 20
49.24186787087788
  0
LWPOLYLINE
  5
1D751
330
1F
100
AcDbEntity
  8
Webs
  6
HIDDENX2
100
AcDbPolyline
 90
        2
 70
     0
 43
0.0
 10
65.90034414740967
 20
48.80436787087791
 10
65.90034414740967
 20
49.24186787087788
  0
LWPOLYLINE
  5
1D752
330
1F
100
AcDbEntity
  8
Webs
  6
HIDDENX2
100
AcDbPolyline
 90
        2
 70
     0
 43
0.0
 10
66.52534414740961
 20
48.80436787087791
 10
66.52534414740961
 20
49.24186787087788
  0
LWPOLYLINE
  5
1D753
330
1F
100
AcDbEntity
  8
Webs
  6
HIDDENX2
100
AcDbPolyline
 90
        2
 70
     0
 43
0.0
 10
65.90034414740967
 20
49.24186787087788
 42
-0.9999999999999998
 10
66.52534414740961
 20
49.24186787087788
  0
LWPOLYLINE
  5
1D754
330
1F
100
AcDbEntity
  8
Webs
  6
HIDDENX2
100
AcDbPolyline
 90
        2
 70
     0
 43
0.0
 10
66.52534414740961
 20
48.80436787087791
 10
66.62534414740957
 20
48.80436787087791
  0
LWPOLYLINE
  5
1D755
330
1F
100
AcDbEntity
  8
Webs
  6
HIDDENX2
100
AcDbPolyline
 90
        2
 70
     0
 43
0.0
 10
66.52534414740961
 20
48.80436787087791
 10
66.97268714740966
 20
48.80436787087791
  0
LINE
  5
1D756
330
1F
100
AcDbEntity
  8
Webs
  6
HIDDENX2
100
AcDbLine
 10
68.22869414740967
 20
48.80436787087791
 30
0.0
 11
67.47268714740966
 21
48.80436787087791
 31
0.0
  0
LWPOLYLINE
  5
1D757
330
1F
100
AcDbEntity
  8
Webs
  6
HIDDENX2
100
AcDbPolyline
 90
        2
 70
     0
 43
0.0
 10
68.22869414740967
 20
48.80436787087791
 10
68.77727109895556
 20
48.80436787087791
  0
LINE
  5
1D758
330
1F
100
AcDbEntity
  8
Webs
  6
HIDDENX2
100
AcDbLine
 10
69.46284414740967
 20
48.80436787087791
 30
0.0
 11
68.24409414740967
 21
48.80436787087791
 31
0.0
  0
LWPOLYLINE
  5
1D759
330
1F
100
AcDbEntity
  8
Webs
  6
HIDDENX2
100
AcDbPolyline
 90
        2
 70
     0
 43
0.0
 10
69.46284414740967
 20
48.80436787087791
 10
71.21284414740961
 20
48.80436787087791
  0
LWPOLYLINE
  5
1D75A
330
1F
100
AcDbEntity
  8
Webs
  6
HIDDENX2
100
AcDbPolyline
 90
        2
 70
     0
 43
0.0
 10
69.44119414740964
 20
48.80436787087791
 10
69.44119414740964
 20
49.17936787087794
  0
LWPOLYLINE
  5
1D75B
330
1F
100
AcDbEntity
  8
Webs
  6
HIDDENX2
100
AcDbPolyline
 90
        2
 70
     0
 43
0.0
 10
68.6911941474097
 20
48.80436787087791
 10
68.6911941474097
 20
49.17936787087794
  0
LWPOLYLINE
  5
1D75C
330
1F
100
AcDbEntity
  8
Webs
  6
HIDDENX2
100
AcDbPolyline
 90
        2
 70
     0
 43
0.0
 10
69.3291364337502
 20
48.81936787087792
 10
69.32021338529608
 20
48.83482304415889
  0
LWPOLYLINE
  5
1D75D
330
1F
100
AcDbEntity
  8
Webs
  6
HIDDENX2
100
AcDbPolyline
 90
        2
 70
     0
 43
0.0
 10
68.80325186106905
 20
48.81936787087792
 10
68.81217490952327
 20
48.83482304415889
  0
LWPOLYLINE
  5
1D75E
330
1F
100
AcDbEntity
  8
Webs
  6
HIDDENX2
100
AcDbPolyline
 90
        2
 70
     0
 43
0.0
 10
69.44119414740964
 20
49.17936787087794
 42
0.9999999999999998
 10
68.6911941474097
 20
49.17936787087794
  0
LWPOLYLINE
  5
1D75F
330
1F
100
AcDbEntity
  8
Webs
  6
HIDDENX2
100
AcDbPolyline
 90
        2
 70
     0
 43
0.0
 10
69.32021338529603
 20
48.86482304415889
 42
0.2679491924311624
 10
69.32021338529603
 20
48.83482304415889
  0
LWPOLYLINE
  5
1D760
330
1F
100
AcDbEntity
  8
Webs
  6
HIDDENX2
100
AcDbPolyline
 90
        2
 70
     0
 43
0.0
 10
69.44119414740964
 20
49.07436787087789
 10
69.32021338529608
 20
48.86482304415889
  0
LWPOLYLINE
  5
1D761
330
1F
100
AcDbEntity
  8
Webs
  6
HIDDENX2
100
AcDbPolyline
 90
        2
 70
     0
 43
0.0
 10
68.81217490952327
 20
48.83482304415889
 42
0.2679491924311644
 10
68.81217490952327
 20
48.86482304415889
  0
LWPOLYLINE
  5
1D762
330
1F
100
AcDbEntity
  8
Webs
  6
HIDDENX2
100
AcDbPolyline
 90
        2
 70
     0
 43
0.0
 10
68.6911941474097
 20
49.07436787087789
 10
68.81217490952327
 20
48.86482304415889
  0
LWPOLYLINE
  5
1D763
330
1F
100
AcDbEntity
  8
Webs
  6
HIDDENX2
100
AcDbPolyline
 90
        2
 70
     0
 43
0.0
 10
69.3291364337502
 20
48.81936787087792
 42
0.2679491924312325
 10
69.35511719586378
 20
48.80436787087791
  0
LWPOLYLINE
  5
1D764
330
1F
100
AcDbEntity
  8
Webs
  6
HIDDENX2
100
AcDbPolyline
 90
        2
 70
     0
 43
0.0
 10
68.77727109895556
 20
48.80436787087791
 42
0.2679491924312281
 10
68.8032518610691
 20
48.81936787087792
  0
LWPOLYLINE
  5
1D765
330
1F
100
AcDbEntity
  8
Webs
  6
HIDDENX2
100
AcDbPolyline
 90
        2
 70
     0
 43
0.0
 10
67.47268714740966
 20
49.05436787087791
 42
1.000000000000007
 10
66.97268714740966
 20
49.05436787087791
  0
LWPOLYLINE
  5
1D766
330
1F
100
AcDbEntity
  8
Webs
  6
HIDDENX2
100
AcDbPolyline
 90
        2
 70
     0
 43
0.0
 10
67.47268714740966
 20
48.80436787087791
 10
67.47268714740966
 20
49.05436787087791
  0
LWPOLYLINE
  5
1D767
330
1F
100
AcDbEntity
  8
Webs
  6
HIDDENX2
100
AcDbPolyline
 90
        2
 70
     0
 43
0.0
 10
66.97268714740966
 20
48.80436787087791
 10
66.97268714740966
 20
49.05436787087791
  0
LWPOLYLINE
  5
1D768
102
{ACAD_REACTORS
330
1D895
102
}
330
1F
100
AcDbEntity
  8
Block
100
AcDbPolyline
 90
        2
 70
     0
 43
0.0
 10
61.21284414740961
 20
60.17936787087799
 10
61.21284414740961
 20
44.17936787087794
  0
LWPOLYLINE
  5
1D769
102
{ACAD_REACTORS
330
1D895
102
}
330
1F
100
AcDbEntity
  8
Block
100
AcDbPolyline
 90
        2
 70
     0
 43
0.0
 10
71.21284414740955
 20
60.17936787087799
 10
71.21284414740955
 20
44.17936787087794
  0
LWPOLYLINE
  5
1D76A
102
{ACAD_REACTORS
330
1DB63
102
}
330
1F
100
AcDbEntity
  8
Webs
  6
HIDDENX2
100
AcDbPolyline
 90
        2
 70
     0
 43
0.0
 10
70.39386110897424
 20
38.05436787087791
 10
62.05124414740959
 20
38.05436787087791
  0
LWPOLYLINE
  5
1D76B
102
{ACAD_REACTORS
330
1DB63
102
}
330
1F
100
AcDbEntity
  8
Webs
  6
HIDDENX2
100
AcDbPolyline
 90
        2
 70
     0
 43
0.0
 10
70.37444414740955
 20
34.30436787087791
 10
62.05124414740959
 20
34.30436787087791
  0
LWPOLYLINE
  5
1D76C
330
1F
100
AcDbEntity
  8
Webs
  6
HIDDENX2
100
AcDbPolyline
 90
        2
 70
     0
 43
0.0
 10
65.90034414740967
 20
39.55436787087794
 10
65.45300114740962
 20
39.55436787087794
  0
LINE
  5
1D76D
330
1F
100
AcDbEntity
  8
Webs
  6
HIDDENX2
100
AcDbLine
 10
64.19699414740958
 20
39.55436787087794
 30
0.0
 11
64.95300114740962
 21
39.55436787087794
 31
0.0
  0
LWPOLYLINE
  5
1D76E
330
1F
100
AcDbEntity
  8
Webs
  6
HIDDENX2
100
AcDbPolyline
 90
        2
 70
     0
 43
0.0
 10
64.19699414740958
 20
39.55436787087794
 10
63.64841719586369
 20
39.55436787087794
  0
LINE
  5
1D76F
330
1F
100
AcDbEntity
  8
Webs
  6
HIDDENX2
100
AcDbLine
 10
62.96284414740961
 20
39.55436787087794
 30
0.0
 11
64.18159414740961
 21
39.55436787087794
 31
0.0
  0
LWPOLYLINE
  5
1D770
330
1F
100
AcDbEntity
  8
Webs
  6
HIDDENX2
100
AcDbPolyline
 90
        2
 70
     0
 43
0.0
 10
62.96284414740961
 20
39.55436787087794
 10
61.21284414740967
 20
39.55436787087794
  0
LWPOLYLINE
  5
1D771
330
1F
100
AcDbEntity
  8
Webs
  6
HIDDENX2
100
AcDbPolyline
 90
        2
 70
     0
 43
0.0
 10
62.98449414740961
 20
39.55436787087794
 10
62.98449414740961
 20
39.17936787087791
  0
LWPOLYLINE
  5
1D772
330
1F
100
AcDbEntity
  8
Webs
  6
HIDDENX2
100
AcDbPolyline
 90
        2
 70
     0
 43
0.0
 10
63.73449414740955
 20
39.55436787087794
 10
63.73449414740955
 20
39.17936787087791
  0
LWPOLYLINE
  5
1D773
330
1F
100
AcDbEntity
  8
Webs
  6
HIDDENX2
100
AcDbPolyline
 90
        2
 70
     0
 43
0.0
 10
63.09655186106906
 20
39.53936787087793
 10
63.10547490952316
 20
39.52391269759696
  0
LWPOLYLINE
  5
1D774
330
1F
100
AcDbEntity
  8
Webs
  6
HIDDENX2
100
AcDbPolyline
 90
        2
 70
     0
 43
0.0
 10
63.62243643375021
 20
39.53936787087793
 10
63.61351338529598
 20
39.52391269759696
  0
LWPOLYLINE
  5
1D775
330
1F
100
AcDbEntity
  8
Webs
  6
HIDDENX2
100
AcDbPolyline
 90
        2
 70
     0
 43
0.0
 10
62.98449414740961
 20
39.17936787087791
 42
0.9999999999999998
 10
63.73449414740955
 20
39.17936787087791
  0
LWPOLYLINE
  5
1D776
330
1F
100
AcDbEntity
  8
Webs
  6
HIDDENX2
100
AcDbPolyline
 90
        2
 70
     0
 43
0.0
 10
63.10547490952322
 20
39.49391269759696
 42
0.2679491924311624
 10
63.10547490952322
 20
39.52391269759696
  0
LWPOLYLINE
  5
1D777
330
1F
100
AcDbEntity
  8
Webs
  6
HIDDENX2
100
AcDbPolyline
 90
        2
 70
     0
 43
0.0
 10
62.98449414740961
 20
39.28436787087796
 10
63.10547490952316
 20
39.49391269759696
  0
LWPOLYLINE
  5
1D778
330
1F
100
AcDbEntity
  8
Webs
  6
HIDDENX2
100
AcDbPolyline
 90
        2
 70
     0
 43
0.0
 10
63.61351338529598
 20
39.52391269759696
 42
0.2679491924311644
 10
63.61351338529598
 20
39.49391269759696
  0
LWPOLYLINE
  5
1D779
330
1F
100
AcDbEntity
  8
Webs
  6
HIDDENX2
100
AcDbPolyline
 90
        2
 70
     0
 43
0.0
 10
63.73449414740955
 20
39.28436787087796
 10
63.61351338529598
 20
39.49391269759696
  0
LWPOLYLINE
  5
1D77A
330
1F
100
AcDbEntity
  8
Webs
  6
HIDDENX2
100
AcDbPolyline
 90
        2
 70
     0
 43
0.0
 10
63.09655186106906
 20
39.53936787087793
 42
0.2679491924312325
 10
63.07057109895547
 20
39.55436787087794
  0
LWPOLYLINE
  5
1D77B
330
1F
100
AcDbEntity
  8
Webs
  6
HIDDENX2
100
AcDbPolyline
 90
        2
 70
     0
 43
0.0
 10
63.64841719586369
 20
39.55436787087794
 42
0.2679491924312281
 10
63.62243643375015
 20
39.53936787087793
  0
LWPOLYLINE
  5
1D77C
330
1F
100
AcDbEntity
  8
Webs
  6
HIDDENX2
100
AcDbPolyline
 90
        2
 70
     0
 43
0.0
 10
64.95300114740962
 20
39.30436787087794
 42
1.000000000000007
 10
65.45300114740962
 20
39.30436787087794
  0
LWPOLYLINE
  5
1D77D
330
1F
100
AcDbEntity
  8
Webs
  6
HIDDENX2
100
AcDbPolyline
 90
        2
 70
     0
 43
0.0
 10
64.95300114740962
 20
39.55436787087794
 10
64.95300114740962
 20
39.30436787087794
  0
LWPOLYLINE
  5
1D77E
330
1F
100
AcDbEntity
  8
Webs
  6
HIDDENX2
100
AcDbPolyline
 90
        2
 70
     0
 43
0.0
 10
65.45300114740962
 20
39.55436787087794
 10
65.45300114740962
 20
39.30436787087794
  0
LWPOLYLINE
  5
1D77F
330
1F
100
AcDbEntity
  8
Webs
  6
HIDDENX2
100
AcDbPolyline
 90
        2
 70
     0
 43
0.0
 10
66.52534414740961
 20
39.55436787087794
 10
66.52534414740961
 20
39.11686787087797
  0
LWPOLYLINE
  5
1D780
330
1F
100
AcDbEntity
  8
Webs
  6
HIDDENX2
100
AcDbPolyline
 90
        2
 70
     0
 43
0.0
 10
65.90034414740967
 20
39.55436787087794
 10
65.90034414740967
 20
39.11686787087797
  0
LWPOLYLINE
  5
1D781
330
1F
100
AcDbEntity
  8
Webs
  6
HIDDENX2
100
AcDbPolyline
 90
        2
 70
     0
 43
0.0
 10
66.52534414740961
 20
39.55436787087794
 10
66.52534414740961
 20
39.11686787087797
  0
LWPOLYLINE
  5
1D782
330
1F
100
AcDbEntity
  8
Webs
  6
HIDDENX2
100
AcDbPolyline
 90
        2
 70
     0
 43
0.0
 10
65.90034414740967
 20
39.11686787087797
 42
0.9999999999999998
 10
66.52534414740961
 20
39.11686787087797
  0
LWPOLYLINE
  5
1D783
330
1F
100
AcDbEntity
  8
Webs
  6
HIDDENX2
100
AcDbPolyline
 90
        2
 70
     0
 43
0.0
 10
66.52534414740961
 20
39.55436787087794
 10
66.62534414740957
 20
39.55436787087794
  0
LWPOLYLINE
  5
1D784
102
{ACAD_REACTORS
330
1D895
102
}
330
1F
100
AcDbEntity
  8
Block
100
AcDbPolyline
 90
        2
 70
     0
 43
0.0
 10
58.46284414740949
 20
44.17936787087794
 10
58.46284414740949
 20
28.17936787087788
  0
LWPOLYLINE
  5
1D785
102
{ACAD_REACTORS
330
1D895
102
}
330
1F
100
AcDbEntity
  8
Block
100
AcDbPolyline
 90
        2
 70
     0
 43
0.0
 10
73.96284414740955
 20
44.17936787087794
 10
73.96284414740955
 20
28.17936787087788
  0
LINE
  5
1D786
102
{ACAD_REACTORS
330
1D895
102
}
330
1F
100
AcDbEntity
  8
Block
100
AcDbLine
 10
58.46284414740949
 20
28.17936787087788
 30
0.0
 11
61.21284414740961
 21
28.17936787087788
 31
0.0
  0
LINE
  5
1D787
102
{ACAD_REACTORS
330
1D895
102
}
330
1F
100
AcDbEntity
  8
Block
100
AcDbLine
 10
71.21284414740955
 20
28.17936787087788
 30
0.0
 11
73.96284414740955
 21
28.17936787087788
 31
0.0
  0
LWPOLYLINE
  5
1D788
102
{ACAD_REACTORS
330
1DB63
102
}
330
1F
100
AcDbEntity
  8
Webs
100
AcDbPolyline
 90
        2
 70
     0
 43
0.0
 10
61.21284414740961
 20
34.79672972016732
 42
0.2719204724283024
 10
62.05124414740959
 20
34.30436787087791
  0
LWPOLYLINE
  5
1D789
102
{ACAD_REACTORS
330
1DB63
102
}
330
1F
100
AcDbEntity
  8
Webs
100
AcDbPolyline
 90
        2
 70
     0
 43
0.0
 10
62.05124414740959
 20
38.05436787087791
 42
0.2719204724283024
 10
61.21284414740961
 20
37.5620060215885
  0
LWPOLYLINE
  5
1D78A
102
{ACAD_REACTORS
330
1DB63
102
}
330
1F
100
AcDbEntity
  8
Webs
100
AcDbPolyline
 90
        2
 70
     0
 43
0.0
 10
71.23226110897426
 20
37.5620060215885
 42
0.2719204724283024
 10
70.39386110897422
 20
38.05436787087791
  0
LWPOLYLINE
  5
1D78B
102
{ACAD_REACTORS
330
1DB63
102
}
330
1F
100
AcDbEntity
  8
Webs
100
AcDbPolyline
 90
        2
 70
     0
 43
0.0
 10
70.37444414740952
 20
34.30436787087791
 42
0.2719204724283024
 10
71.21284414740955
 20
34.79672972016732
  0
LWPOLYLINE
  5
1D78C
330
1F
100
AcDbEntity
  8
Webs
  6
HIDDENX2
100
AcDbPolyline
 90
        2
 70
     0
 43
0.0
 10
66.52534414740961
 20
39.55436787087794
 10
66.97268714740966
 20
39.55436787087794
  0
LINE
  5
1D78D
330
1F
100
AcDbEntity
  8
Webs
  6
HIDDENX2
100
AcDbLine
 10
68.22869414740967
 20
39.55436787087794
 30
0.0
 11
67.47268714740966
 21
39.55436787087794
 31
0.0
  0
LWPOLYLINE
  5
1D78E
330
1F
100
AcDbEntity
  8
Webs
  6
HIDDENX2
100
AcDbPolyline
 90
        2
 70
     0
 43
0.0
 10
68.22869414740967
 20
39.55436787087794
 10
68.77727109895556
 20
39.55436787087794
  0
LINE
  5
1D78F
330
1F
100
AcDbEntity
  8
Webs
  6
HIDDENX2
100
AcDbLine
 10
69.46284414740967
 20
39.55436787087794
 30
0.0
 11
68.24409414740967
 21
39.55436787087794
 31
0.0
  0
LWPOLYLINE
  5
1D790
330
1F
100
AcDbEntity
  8
Webs
  6
HIDDENX2
100
AcDbPolyline
 90
        2
 70
     0
 43
0.0
 10
69.46284414740967
 20
39.55436787087794
 10
71.21284414740961
 20
39.55436787087794
  0
LWPOLYLINE
  5
1D791
330
1F
100
AcDbEntity
  8
Webs
  6
HIDDENX2
100
AcDbPolyline
 90
        2
 70
     0
 43
0.0
 10
69.44119414740964
 20
39.55436787087794
 10
69.44119414740964
 20
39.17936787087791
  0
LWPOLYLINE
  5
1D792
330
1F
100
AcDbEntity
  8
Webs
  6
HIDDENX2
100
AcDbPolyline
 90
        2
 70
     0
 43
0.0
 10
68.6911941474097
 20
39.55436787087794
 10
68.6911941474097
 20
39.17936787087791
  0
LWPOLYLINE
  5
1D793
330
1F
100
AcDbEntity
  8
Webs
  6
HIDDENX2
100
AcDbPolyline
 90
        2
 70
     0
 43
0.0
 10
69.3291364337502
 20
39.53936787087793
 10
69.32021338529608
 20
39.52391269759696
  0
LWPOLYLINE
  5
1D794
330
1F
100
AcDbEntity
  8
Webs
  6
HIDDENX2
100
AcDbPolyline
 90
        2
 70
     0
 43
0.0
 10
68.80325186106905
 20
39.53936787087793
 10
68.81217490952327
 20
39.52391269759696
  0
LWPOLYLINE
  5
1D795
330
1F
100
AcDbEntity
  8
Webs
  6
HIDDENX2
100
AcDbPolyline
 90
        2
 70
     0
 43
0.0
 10
69.44119414740964
 20
39.17936787087791
 42
-0.9999999999999998
 10
68.6911941474097
 20
39.17936787087791
  0
LWPOLYLINE
  5
1D796
330
1F
100
AcDbEntity
  8
Webs
  6
HIDDENX2
100
AcDbPolyline
 90
        2
 70
     0
 43
0.0
 10
69.32021338529603
 20
39.49391269759696
 42
-0.2679491924311624
 10
69.32021338529603
 20
39.52391269759696
  0
LWPOLYLINE
  5
1D797
330
1F
100
AcDbEntity
  8
Webs
  6
HIDDENX2
100
AcDbPolyline
 90
        2
 70
     0
 43
0.0
 10
69.44119414740964
 20
39.28436787087796
 10
69.32021338529608
 20
39.49391269759696
  0
LWPOLYLINE
  5
1D798
330
1F
100
AcDbEntity
  8
Webs
  6
HIDDENX2
100
AcDbPolyline
 90
        2
 70
     0
 43
0.0
 10
68.81217490952327
 20
39.52391269759696
 42
-0.2679491924311644
 10
68.81217490952327
 20
39.49391269759696
  0
LWPOLYLINE
  5
1D799
330
1F
100
AcDbEntity
  8
Webs
  6
HIDDENX2
100
AcDbPolyline
 90
        2
 70
     0
 43
0.0
 10
68.6911941474097
 20
39.28436787087796
 10
68.81217490952327
 20
39.49391269759696
  0
LWPOLYLINE
  5
1D79A
330
1F
100
AcDbEntity
  8
Webs
  6
HIDDENX2
100
AcDbPolyline
 90
        2
 70
     0
 43
0.0
 10
69.3291364337502
 20
39.53936787087793
 42
-0.2679491924312325
 10
69.35511719586378
 20
39.55436787087794
  0
LWPOLYLINE
  5
1D79B
330
1F
100
AcDbEntity
  8
Webs
  6
HIDDENX2
100
AcDbPolyline
 90
        2
 70
     0
 43
0.0
 10
68.77727109895556
 20
39.55436787087794
 42
-0.2679491924312281
 10
68.8032518610691
 20
39.53936787087793
  0
LWPOLYLINE
  5
1D79C
330
1F
100
AcDbEntity
  8
Webs
  6
HIDDENX2
100
AcDbPolyline
 90
        2
 70
     0
 43
0.0
 10
67.47268714740966
 20
39.30436787087794
 42
-1.000000000000007
 10
66.97268714740966
 20
39.30436787087794
  0
LWPOLYLINE
  5
1D79D
330
1F
100
AcDbEntity
  8
Webs
  6
HIDDENX2
100
AcDbPolyline
 90
        2
 70
     0
 43
0.0
 10
67.47268714740966
 20
39.55436787087794
 10
67.47268714740966
 20
39.30436787087794
  0
LWPOLYLINE
  5
1D79E
330
1F
100
AcDbEntity
  8
Webs
  6
HIDDENX2
100
AcDbPolyline
 90
        2
 70
     0
 43
0.0
 10
66.97268714740966
 20
39.55436787087794
 10
66.97268714740966
 20
39.30436787087794
  0
LWPOLYLINE
  5
1D79F
102
{ACAD_REACTORS
330
1DB63
102
}
330
1F
100
AcDbEntity
  8
Webs
  6
HIDDENX2
100
AcDbPolyline
 90
        2
 70
     0
 43
0.0
 10
65.90034414740967
 20
32.80436787087785
 10
65.45300114740962
 20
32.80436787087785
  0
LINE
  5
1D7A0
102
{ACAD_REACTORS
330
1DB63
102
}
330
1F
100
AcDbEntity
  8
Webs
  6
HIDDENX2
100
AcDbLine
 10
64.19699414740958
 20
32.80436787087785
 30
0.0
 11
64.95300114740962
 21
32.80436787087785
 31
0.0
  0
LWPOLYLINE
  5
1D7A1
102
{ACAD_REACTORS
330
1DB63
102
}
330
1F
100
AcDbEntity
  8
Webs
  6
HIDDENX2
100
AcDbPolyline
 90
        2
 70
     0
 43
0.0
 10
64.19699414740958
 20
32.80436787087785
 10
63.64841719586369
 20
32.80436787087785
  0
LINE
  5
1D7A2
102
{ACAD_REACTORS
330
1DB63
102
}
330
1F
100
AcDbEntity
  8
Webs
  6
HIDDENX2
100
AcDbLine
 10
62.96284414740961
 20
32.80436787087785
 30
0.0
 11
64.18159414740961
 21
32.80436787087785
 31
0.0
  0
LWPOLYLINE
  5
1D7A3
102
{ACAD_REACTORS
330
1DB63
102
}
330
1F
100
AcDbEntity
  8
Webs
  6
HIDDENX2
100
AcDbPolyline
 90
        2
 70
     0
 43
0.0
 10
62.96284414740961
 20
32.80436787087785
 10
61.21284414740967
 20
32.80436787087785
  0
LWPOLYLINE
  5
1D7A4
330
1F
100
AcDbEntity
  8
Webs
  6
HIDDENX2
100
AcDbPolyline
 90
        2
 70
     0
 43
0.0
 10
62.98449414740961
 20
32.80436787087785
 10
62.98449414740961
 20
33.17936787087788
  0
LWPOLYLINE
  5
1D7A5
330
1F
100
AcDbEntity
  8
Webs
  6
HIDDENX2
100
AcDbPolyline
 90
        2
 70
     0
 43
0.0
 10
63.73449414740955
 20
32.80436787087785
 10
63.73449414740955
 20
33.17936787087788
  0
LWPOLYLINE
  5
1D7A6
330
1F
100
AcDbEntity
  8
Webs
  6
HIDDENX2
100
AcDbPolyline
 90
        2
 70
     0
 43
0.0
 10
63.09655186106906
 20
32.81936787087787
 10
63.10547490952316
 20
32.83482304415884
  0
LWPOLYLINE
  5
1D7A7
330
1F
100
AcDbEntity
  8
Webs
  6
HIDDENX2
100
AcDbPolyline
 90
        2
 70
     0
 43
0.0
 10
63.62243643375021
 20
32.81936787087787
 10
63.61351338529598
 20
32.83482304415884
  0
LWPOLYLINE
  5
1D7A8
330
1F
100
AcDbEntity
  8
Webs
  6
HIDDENX2
100
AcDbPolyline
 90
        2
 70
     0
 43
0.0
 10
62.98449414740961
 20
33.17936787087788
 42
-0.9999999999999998
 10
63.73449414740955
 20
33.17936787087788
  0
LWPOLYLINE
  5
1D7A9
330
1F
100
AcDbEntity
  8
Webs
  6
HIDDENX2
100
AcDbPolyline
 90
        2
 70
     0
 43
0.0
 10
63.10547490952322
 20
32.86482304415884
 42
-0.2679491924311624
 10
63.10547490952322
 20
32.83482304415884
  0
LWPOLYLINE
  5
1D7AA
330
1F
100
AcDbEntity
  8
Webs
  6
HIDDENX2
100
AcDbPolyline
 90
        2
 70
     0
 43
0.0
 10
62.98449414740961
 20
33.07436787087784
 10
63.10547490952316
 20
32.86482304415884
  0
LWPOLYLINE
  5
1D7AB
330
1F
100
AcDbEntity
  8
Webs
  6
HIDDENX2
100
AcDbPolyline
 90
        2
 70
     0
 43
0.0
 10
63.61351338529598
 20
32.83482304415884
 42
-0.2679491924311644
 10
63.61351338529598
 20
32.86482304415884
  0
LWPOLYLINE
  5
1D7AC
330
1F
100
AcDbEntity
  8
Webs
  6
HIDDENX2
100
AcDbPolyline
 90
        2
 70
     0
 43
0.0
 10
63.73449414740955
 20
33.07436787087784
 10
63.61351338529598
 20
32.86482304415884
  0
LWPOLYLINE
  5
1D7AD
330
1F
100
AcDbEntity
  8
Webs
  6
HIDDENX2
100
AcDbPolyline
 90
        2
 70
     0
 43
0.0
 10
63.09655186106906
 20
32.81936787087787
 42
-0.2679491924312325
 10
63.07057109895547
 20
32.80436787087785
  0
LWPOLYLINE
  5
1D7AE
330
1F
100
AcDbEntity
  8
Webs
  6
HIDDENX2
100
AcDbPolyline
 90
        2
 70
     0
 43
0.0
 10
63.64841719586369
 20
32.80436787087785
 42
-0.2679491924312281
 10
63.62243643375015
 20
32.81936787087787
  0
LWPOLYLINE
  5
1D7AF
102
{ACAD_REACTORS
330
1DB63
102
}
330
1F
100
AcDbEntity
  8
Webs
  6
HIDDENX2
100
AcDbPolyline
 90
        2
 70
     0
 43
0.0
 10
64.95300114740962
 20
33.05436787087785
 42
-1.000000000000007
 10
65.45300114740962
 20
33.05436787087785
  0
LWPOLYLINE
  5
1D7B0
102
{ACAD_REACTORS
330
1DB63
102
}
330
1F
100
AcDbEntity
  8
Webs
  6
HIDDENX2
100
AcDbPolyline
 90
        2
 70
     0
 43
0.0
 10
64.95300114740962
 20
32.80436787087785
 10
64.95300114740962
 20
33.05436787087785
  0
LWPOLYLINE
  5
1D7B1
102
{ACAD_REACTORS
330
1DB63
102
}
330
1F
100
AcDbEntity
  8
Webs
  6
HIDDENX2
100
AcDbPolyline
 90
        2
 70
     0
 43
0.0
 10
65.45300114740962
 20
32.80436787087785
 10
65.45300114740962
 20
33.05436787087785
  0
LWPOLYLINE
  5
1D7B2
330
1F
100
AcDbEntity
  8
Webs
  6
HIDDENX2
100
AcDbPolyline
 90
        2
 70
     0
 43
0.0
 10
66.52534414740961
 20
32.80436787087785
 10
66.52534414740961
 20
33.24186787087783
  0
LWPOLYLINE
  5
1D7B3
102
{ACAD_REACTORS
330
1DB63
102
}
330
1F
100
AcDbEntity
  8
Webs
  6
HIDDENX2
100
AcDbPolyline
 90
        2
 70
     0
 43
0.0
 10
65.90034414740967
 20
32.80436787087785
 10
65.90034414740967
 20
33.24186787087783
  0
LWPOLYLINE
  5
1D7B4
102
{ACAD_REACTORS
330
1DB63
102
}
330
1F
100
AcDbEntity
  8
Webs
  6
HIDDENX2
100
AcDbPolyline
 90
        2
 70
     0
 43
0.0
 10
66.52534414740961
 20
32.80436787087785
 10
66.52534414740961
 20
33.24186787087783
  0
LWPOLYLINE
  5
1D7B5
102
{ACAD_REACTORS
330
1DB63
102
}
330
1F
100
AcDbEntity
  8
Webs
  6
HIDDENX2
100
AcDbPolyline
 90
        2
 70
     0
 43
0.0
 10
65.90034414740967
 20
33.24186787087783
 42
-0.9999999999999998
 10
66.52534414740961
 20
33.24186787087783
  0
LWPOLYLINE
  5
1D7B6
330
1F
100
AcDbEntity
  8
Webs
  6
HIDDENX2
100
AcDbPolyline
 90
        2
 70
     0
 43
0.0
 10
66.52534414740961
 20
32.80436787087785
 10
66.62534414740957
 20
32.80436787087785
  0
LWPOLYLINE
  5
1D7B7
102
{ACAD_REACTORS
330
1DB63
102
}
330
1F
100
AcDbEntity
  8
Webs
  6
HIDDENX2
100
AcDbPolyline
 90
        2
 70
     0
 43
0.0
 10
66.52534414740961
 20
32.80436787087785
 10
66.97268714740966
 20
32.80436787087785
  0
LINE
  5
1D7B8
102
{ACAD_REACTORS
330
1DB63
102
}
330
1F
100
AcDbEntity
  8
Webs
  6
HIDDENX2
100
AcDbLine
 10
68.22869414740967
 20
32.80436787087785
 30
0.0
 11
67.47268714740966
 21
32.80436787087785
 31
0.0
  0
LWPOLYLINE
  5
1D7B9
102
{ACAD_REACTORS
330
1DB63
102
}
330
1F
100
AcDbEntity
  8
Webs
  6
HIDDENX2
100
AcDbPolyline
 90
        2
 70
     0
 43
0.0
 10
68.22869414740967
 20
32.80436787087785
 10
68.77727109895556
 20
32.80436787087785
  0
LINE
  5
1D7BA
102
{ACAD_REACTORS
330
1DB63
102
}
330
1F
100
AcDbEntity
  8
Webs
  6
HIDDENX2
100
AcDbLine
 10
69.46284414740967
 20
32.80436787087785
 30
0.0
 11
68.24409414740967
 21
32.80436787087785
 31
0.0
  0
LWPOLYLINE
  5
1D7BB
102
{ACAD_REACTORS
330
1DB63
102
}
330
1F
100
AcDbEntity
  8
Webs
  6
HIDDENX2
100
AcDbPolyline
 90
        2
 70
     0
 43
0.0
 10
69.46284414740967
 20
32.80436787087785
 10
71.21284414740961
 20
32.80436787087785
  0
LWPOLYLINE
  5
1D7BC
330
1F
100
AcDbEntity
  8
Webs
  6
HIDDENX2
100
AcDbPolyline
 90
        2
 70
     0
 43
0.0
 10
69.44119414740964
 20
32.80436787087785
 10
69.44119414740964
 20
33.17936787087788
  0
LWPOLYLINE
  5
1D7BD
330
1F
100
AcDbEntity
  8
Webs
  6
HIDDENX2
100
AcDbPolyline
 90
        2
 70
     0
 43
0.0
 10
68.6911941474097
 20
32.80436787087785
 10
68.6911941474097
 20
33.17936787087788
  0
LWPOLYLINE
  5
1D7BE
330
1F
100
AcDbEntity
  8
Webs
  6
HIDDENX2
100
AcDbPolyline
 90
        2
 70
     0
 43
0.0
 10
69.3291364337502
 20
32.81936787087787
 10
69.32021338529608
 20
32.83482304415884
  0
LWPOLYLINE
  5
1D7BF
330
1F
100
AcDbEntity
  8
Webs
  6
HIDDENX2
100
AcDbPolyline
 90
        2
 70
     0
 43
0.0
 10
68.80325186106905
 20
32.81936787087787
 10
68.81217490952327
 20
32.83482304415884
  0
LWPOLYLINE
  5
1D7C0
330
1F
100
AcDbEntity
  8
Webs
  6
HIDDENX2
100
AcDbPolyline
 90
        2
 70
     0
 43
0.0
 10
69.44119414740964
 20
33.17936787087788
 42
0.9999999999999998
 10
68.6911941474097
 20
33.17936787087788
  0
LWPOLYLINE
  5
1D7C1
330
1F
100
AcDbEntity
  8
Webs
  6
HIDDENX2
100
AcDbPolyline
 90
        2
 70
     0
 43
0.0
 10
69.32021338529603
 20
32.86482304415884
 42
0.2679491924311624
 10
69.32021338529603
 20
32.83482304415884
  0
LWPOLYLINE
  5
1D7C2
330
1F
100
AcDbEntity
  8
Webs
  6
HIDDENX2
100
AcDbPolyline
 90
        2
 70
     0
 43
0.0
 10
69.44119414740964
 20
33.07436787087784
 10
69.32021338529608
 20
32.86482304415884
  0
LWPOLYLINE
  5
1D7C3
330
1F
100
AcDbEntity
  8
Webs
  6
HIDDENX2
100
AcDbPolyline
 90
        2
 70
     0
 43
0.0
 10
68.81217490952327
 20
32.83482304415884
 42
0.2679491924311644
 10
68.81217490952327
 20
32.86482304415884
  0
LWPOLYLINE
  5
1D7C4
330
1F
100
AcDbEntity
  8
Webs
  6
HIDDENX2
100
AcDbPolyline
 90
        2
 70
     0
 43
0.0
 10
68.6911941474097
 20
33.07436787087784
 10
68.81217490952327
 20
32.86482304415884
  0
LWPOLYLINE
  5
1D7C5
330
1F
100
AcDbEntity
  8
Webs
  6
HIDDENX2
100
AcDbPolyline
 90
        2
 70
     0
 43
0.0
 10
69.3291364337502
 20
32.81936787087787
 42
0.2679491924312325
 10
69.35511719586378
 20
32.80436787087785
  0
LWPOLYLINE
  5
1D7C6
330
1F
100
AcDbEntity
  8
Webs
  6
HIDDENX2
100
AcDbPolyline
 90
        2
 70
     0
 43
0.0
 10
68.77727109895556
 20
32.80436787087785
 42
0.2679491924312281
 10
68.8032518610691
 20
32.81936787087787
  0
LWPOLYLINE
  5
1D7C7
102
{ACAD_REACTORS
330
1DB63
102
}
330
1F
100
AcDbEntity
  8
Webs
  6
HIDDENX2
100
AcDbPolyline
 90
        2
 70
     0
 43
0.0
 10
67.47268714740966
 20
33.05436787087785
 42
1.000000000000007
 10
66.97268714740966
 20
33.05436787087785
  0
LWPOLYLINE
  5
1D7C8
102
{ACAD_REACTORS
330
1DB63
102
}
330
1F
100
AcDbEntity
  8
Webs
  6
HIDDENX2
100
AcDbPolyline
 90
        2
 70
     0
 43
0.0
 10
67.47268714740966
 20
32.80436787087785
 10
67.47268714740966
 20
33.05436787087785
  0
LWPOLYLINE
  5
1D7C9
102
{ACAD_REACTORS
330
1DB63
102
}
330
1F
100
AcDbEntity
  8
Webs
  6
HIDDENX2
100
AcDbPolyline
 90
        2
 70
     0
 43
0.0
 10
66.97268714740966
 20
32.80436787087785
 10
66.97268714740966
 20
33.05436787087785
  0
LWPOLYLINE
  5
1D7CA
102
{ACAD_REACTORS
330
1D895
330
1DB63
102
}
330
1F
100
AcDbEntity
  8
Block
100
AcDbPolyline
 90
        2
 70
     0
 43
0.0
 10
61.21284414740961
 20
44.17936787087794
 10
61.21284414740961
 20
28.17936787087788
  0
LWPOLYLINE
  5
1D7CB
102
{ACAD_REACTORS
330
1D895
330
1DB63
102
}
330
1F
100
AcDbEntity
  8
Block
100
AcDbPolyline
 90
        2
 70
     0
 43
0.0
 10
71.21284414740955
 20
44.17936787087794
 10
71.21284414740955
 20
28.17936787087788
  0
LWPOLYLINE
  5
1D7E6
102
{ACAD_REACTORS
330
1D895
102
}
330
1F
100
AcDbEntity
  8
Block
100
AcDbPolyline
 90
        2
 70
     0
 43
0.0
 10
58.46284414740949
 20
28.17936787087788
 10
58.46284414740949
 20
25.01601013482926
  0
LWPOLYLINE
  5
1D7E7
102
{ACAD_REACTORS
330
1D895
102
}
330
1F
100
AcDbEntity
  8
Block
100
AcDbPolyline
 90
        2
 70
     0
 43
0.0
 10
73.96284414740955
 20
28.17936787087788
 10
73.96284414740955
 20
25.01601013482926
  0
LWPOLYLINE
  5
1D82C
102
{ACAD_REACTORS
330
1D895
330
1DB63
102
}
330
1F
100
AcDbEntity
  8
Block
100
AcDbPolyline
 90
        2
 70
     0
 43
0.0
 10
61.2128441474096
 20
28.17936787087788
 10
61.2128441474096
 20
25.01601013482926
  0
LWPOLYLINE
  5
1D82D
102
{ACAD_REACTORS
330
1D895
330
1DB63
102
}
330
1F
100
AcDbEntity
  8
Block
100
AcDbPolyline
 90
        2
 70
     0
 43
0.0
 10
71.21284414740955
 20
28.17936787087788
 10
71.21284414740955
 20
25.01601013482926
  0
LWPOLYLINE
  5
1D836
102
{ACAD_REACTORS
330
1D895
330
1DB63
102
}
330
1F
100
AcDbEntity
  8
0
  6
Continuous
100
AcDbPolyline
 90
        6
 70
     0
 43
0.0
 10
57.46284414740949
 20
25.01601013482926
 10
65.96284414740974
 20
25.01601013482926
 10
66.08784414740973
 20
24.67257545739767
 10
66.3378441474099
 20
25.35944481226102
 10
66.46284414740974
 20
25.01601013482926
 10
74.96284414740955
 20
25.01601013482926
  0
LINE
  5
1D838
330
1F
100
AcDbEntity
  8
Conc
100
AcDbLine
 10
61.21284414740961
 20
60.17936787087799
 30
0.0
 11
71.21284414740955
 21
60.17936787087799
 31
0.0
  0
LWPOLYLINE
  5
1D839
330
1F
100
AcDbEntity
  8
SteelBars
100
AcDbPolyline
 90
        4
 70
     0
 43
0.5
 10
62.23802255934348
 20
50.4322809021377
 10
62.23802255934348
 20
46.9276408868107
 42
0.4142135623730951
 10
63.23802255934348
 20
45.92764088681071
 10
63.61171825737361
 20
45.92764088681071
  0
LWPOLYLINE
  5
1D83A
330
1F
100
AcDbEntity
  8
SteelBars
100
AcDbPolyline
 90
        4
 70
     0
 43
0.5
 10
70.21827359715306
 20
50.4322809021377
 10
70.21827359715306
 20
46.9276408868107
 42
-0.4142135623730951
 10
69.21827359715305
 20
45.92764088681072
 10
68.84457789912293
 20
45.92764088681072
  0
LWPOLYLINE
  5
1D83C
102
{ACAD_REACTORS
330
1DB63
102
}
330
1F
100
AcDbEntity
  8
SteelBars
100
AcDbPolyline
 90
        2
 70
     0
 43
0.25
 10
66.21284414740959
 20
25.01601013482872
 10
66.21284414740959
 20
60.17936787087799
  0
HATCH
  5
1D863
330
1F
100
AcDbEntity
  8
SteelBars
100
AcDbHatch
 10
0.0
 20
0.0
 30
0.0
210
0.0
220
0.0
230
1.0
  2
ANSI32
 70
     0
 71
     1
 91
        3
 92
        7
 72
     0
 73
     1
 93
        5
 10
62.23802255934348
 20
61.17936787087799
 10
62.23802255934347
 20
61.80436787087799
 10
61.45677342786862
 20
61.80436787087799
 10
60.21284414740958
 20
61.80436787087799
 10
60.21284414740957
 20
61.17936787087799
 97
        5
330
1D688
330
1D67E
330
1D67D
330
1D68C
330
1D68F
 92
        7
 72
     0
 73
     1
 93
        5
 10
70.21827359715306
 20
61.17936787087801
 10
70.21827359715306
 20
61.80436787087799
 10
69.43702272862791
 20
61.80436787087799
 10
62.23802255934347
 20
61.80436787087799
 10
62.23802255934347
 20
61.17936787087799
 97
        5
330
1D684
330
1D67E
330
1D68F
330
1D68C
330
1D68E
 92
        7
 72
     0
 73
     1
 93
        4
 10
72.21284414740958
 20
61.80436787087799
 10
70.21827359715306
 20
61.80436787087799
 10
70.21827359715306
 20
61.17936787087799
 10
72.21284414740958
 20
61.17936787087799
 97
        4
330
1D67E
330
1D68E
330
1D68C
330
1D67F
 75
     0
 76
     1
 52
0.0
 41
3.0
 77
     0
 78
     2
 53
45.0
 43
61.22052997181743
 44
-28.00814643088859
 45
-0.795495128834866
 46
0.7954951288348661
 79
     0
 53
45.0
 43
61.75086005681743
 44
-28.00814643088859
 45
-0.795495128834866
 46
0.7954951288348661
 79
     0
 47
0.0192015486260801
 98
        3
 10
61.61488033650527
 20
61.39597727201027
 10
63.24858257963069
 20
61.47278350427405
 10
72.08979519772663
 20
61.43438050629942
1001
ACAD
1010
0.0
1020
0.0
1030
0.0
  0
HATCH
  5
1D895
330
1F
100
AcDbEntity
  8
hatch
100
AcDbHatch
 10
0.0
 20
0.0
 30
0.0
210
0.0
220
0.0
230
1.0
  2
SACNCR
 70
     0
 71
     1
 91
        6
 92
        7
 72
     0
 73
     1
 93
        5
 10
61.2128441474096
 20
60.17936787087799
 10
59.58154672661251
 20
60.17936787087799
 10
58.46284414740949
 20
60.17936787087799
 10
58.46284414740949
 20
44.17936787087794
 10
61.21284414740961
 20
44.17936787087794
 97
        5
330
1D68D
330
1D706
330
1D722
330
1D724
330
1D768
 92
        7
 72
     0
 73
     1
 93
        4
 10
61.21284414740962
 20
44.17936787087795
 10
58.46284414740949
 20
44.17936787087793
 10
58.46284414740949
 20
28.17936787087788
 10
61.21284414740962
 20
28.17936787087788
 97
        4
330
1D724
330
1D784
330
1D786
330
1D7CA
 92
        7
 72
     0
 73
     1
 93
        4
 10
58.46284414740949
 20
28.17936787087788
 10
58.46284414740948
 20
25.01601013482926
 10
61.21284414740959
 20
25.01601013482926
 10
61.21284414740962
 20
28.17936787087788
 97
        4
330
1D786
330
1D7E6
330
1D836
330
1D82C
 92
        7
 72
     0
 73
     1
 93
        4
 10
71.21284414740955
 20
25.01601013482926
 10
73.96284414740955
 20
25.01601013482926
 10
73.96284414740957
 20
28.17936787087789
 10
71.21284414740957
 20
28.17936787087788
 97
        4
330
1D787
330
1D82D
330
1D836
330
1D7E7
 92
        7
 72
     0
 73
     1
 93
        4
 10
71.21284414740957
 20
28.17936787087788
 10
73.96284414740955
 20
28.17936787087788
 10
73.96284414740955
 20
44.17936787087794
 10
71.21284414740955
 20
44.17936787087793
 97
        4
330
1D725
330
1D7CB
330
1D787
330
1D785
 92
        7
 72
     0
 73
     1
 93
        4
 10
71.21284414740955
 20
44.17936787087793
 10
73.96284414740955
 20
44.17936787087793
 10
73.96284414740955
 20
60.17936787087799
 10
71.21284414740955
 20
60.179367870878
 97
        4
330
1D707
330
1D769
330
1D725
330
1D723
 75
     0
 76
     1
 52
0.0
 41
10.0
 77
     0
 78
     2
 53
45.0
 43
61.22052997181743
 44
-28.00814643088859
 45
-0.6629126073623883
 46
0.6629126073623884
 79
     0
 53
45.0
 43
61.88344258181743
 44
-28.00814643088859
 45
-0.6629126073623883
 46
0.6629126073623884
 79
     2
 49
0.0
 49
-0.9375
 47
0.078624904470337
 98
        6
 10
60.20190656375951
 20
45.54578145187713
 10
60.12320604460478
 20
42.63665982949731
 10
59.8084039679859
 20
28.01242751782891
 10
72.4004946640847
 20
26.75442897842143
 10
72.16439310662053
 20
30.37117477921794
 10
72.24309362577526
 20
48.69077756408131
1001
ACAD
1010
0.0
1020
0.0
1030
0.0
  0
HATCH
  5
1D8A0
330
1F
100
AcDbEntity
  8
SteelBars
100
AcDbHatch
 10
0.0
 20
0.0
 30
0.0
210
0.0
220
0.0
230
1.0
  2
SOLID
 70
     1
 71
     1
 91
        1
 92
        1
 93
        1
 72
     2
 10
65.20300114740962
 20
55.304367870878
 40
0.3
 50
0.0
 51
360.0
 73
     1
 97
        1
330
1D8A1
 75
     0
 76
     1
 98
        1
 10
-249.5048453095786
 20
-17.10398649992696
450
        0
451
        0
460
0.0
461
0.0
452
        1
462
1.0
453
        2
463
0.0
 63
     5
421
      255
463
1.0
 63
     7
421
 16777215
470
LINEAR
1001
ACAD
1010
0.0
1020
0.0
1030
0.0
  0
CIRCLE
  5
1D8A1
102
{ACAD_REACTORS
330
1D8A0
102
}
330
1F
100
AcDbEntity
  8
SteelBars
100
AcDbCircle
 10
65.20300114740962
 20
55.304367870878
 30
0.0
 40
0.3
  0
HATCH
  5
1D8A2
330
1F
100
AcDbEntity
  8
SteelBars
100
AcDbHatch
 10
0.0
 20
0.0
 30
0.0
210
0.0
220
0.0
230
1.0
  2
SOLID
 70
     1
 71
     1
 91
        1
 92
        1
 93
        1
 72
     2
 10
67.22268714740966
 20
39.30436787087794
 40
0.3
 50
0.0
 51
360.0
 73
     1
 97
        1
330
1D8A3
 75
     0
 76
     1
 98
        1
 10
-247.4851593095786
 20
-33.10398649992702
450
        0
451
        0
460
0.0
461
0.0
452
        1
462
1.0
453
        2
463
0.0
 63
     5
421
      255
463
1.0
 63
     7
421
 16777215
470
LINEAR
1001
ACAD
1010
0.0
1020
0.0
1030
0.0
  0
CIRCLE
  5
1D8A3
102
{ACAD_REACTORS
330
1D8A2
102
}
330
1F
100
AcDbEntity
  8
SteelBars
100
AcDbCircle
 10
67.22268714740966
 20
39.30436787087794
 30
0.0
 40
0.3
  0
HATCH
  5
1DB36
330
1F
100
AcDbEntity
  8
Conc
100
AcDbHatch
 10
0.0
 20
0.0
 30
0.0
210
0.0
220
0.0
230
1.0
  2
AR-CONC
 70
     0
 71
     0
 91
       18
 92
        7
 72
     0
 73
     1
 93
        4
 10
62.23802255934348
 20
60.17936787087798
 10
61.21284414740961
 20
60.17936787087799
 10
61.21284414740961
 20
55.55436787087799
 10
62.23802255934348
 20
55.55436787087801
 97
        0
 92
        7
 72
     1
 73
     1
 93
       13
 10
66.21284414740959
 20
60.17936787087799
 42
0.0
 10
62.23802255934348
 20
60.17936787087798
 42
0.0
 10
62.23802255934348
 20
55.55436787087801
 42
0.0
 10
62.96284414740961
 20
55.55436787087799
 42
0.0
 10
64.18159414740961
 20
55.55436787087799
 42
0.0
 10
64.19699414740958
 20
55.55436787087799
 42
0.0
 10
64.95300114740962
 20
55.55436787087799
 42
0.0
 10
64.95300114740962
 20
55.47019911039576
 42
-0.5366750419289199
 10
65.45300114740962
 20
55.47019911039576
 42
0.0
 10
65.45300114740962
 20
55.55436787087798
 42
0.0
 10
65.90034414740967
 20
55.55436787087801
 42
0.0
 10
65.90034414740967
 20
55.11686787087803
 42
0.414213562373041
 10
66.21284414740959
 20
54.80436787087805
 42
0.0
 97
        0
 92
        7
 72
     1
 73
     1
 93
       12
 10
70.21827359715306
 20
60.17936787087799
 42
0.0
 10
66.21284414740959
 20
60.17936787087799
 42
0.0
 10
66.21284414740959
 20
54.80436787087805
 42
0.4142135623731492
 10
66.52534414740961
 20
55.11686787087803
 42
0.0
 10
66.52534414740961
 20
55.55436787087799
 42
0.0
 10
66.97268714740966
 20
55.55436787087801
 42
0.0
 10
66.97268714740966
 20
55.304367870878
 42
1.0
 10
67.47268714740966
 20
55.304367870878
 42
0.0
 10
67.47268714740966
 20
55.55436787087799
 42
0.0
 10
68.22869414740967
 20
55.55436787087799
 42
0.0
 10
69.46284414740967
 20
55.55436787087799
 42
0.0
 10
70.21827359715306
 20
55.55436787087801
 42
0.0
 97
        0
 92
        7
 72
     0
 73
     1
 93
        4
 10
71.21284414740955
 20
60.17936787087799
 10
70.21827359715306
 20
60.17936787087799
 10
70.21827359715306
 20
55.55436787087801
 10
71.21284414740955
 20
55.55436787087799
 97
        0
 92
        7
 72
     1
 73
     1
 93
        6
 10
71.21284414740955
 20
53.59523390362056
 42
0.2611854144230707
 10
70.39386110897424
 20
54.05436787087797
 42
0.0
 10
70.21827359715306
 20
54.05436787087797
 42
0.0
 10
70.21827359715306
 20
50.30436787087797
 42
0.0
 10
70.37444414740955
 20
50.30436787087797
 42
0.2719204724282945
 10
71.21284414740955
 20
50.79672972016737
 42
0.0
 97
        0
 92
        7
 72
     0
 73
     1
 93
        4
 10
70.21827359715306
 20
54.05436787087797
 10
66.21284414740959
 20
54.05436787087797
 10
66.21284414740959
 20
50.30436787087795
 10
70.21827359715306
 20
50.30436787087797
 97
        0
 92
        7
 72
     0
 73
     1
 93
        4
 10
66.21284414740959
 20
54.05436787087797
 10
62.23802255934348
 20
54.05436787087797
 10
62.23802255934348
 20
50.30436787087797
 10
66.21284414740959
 20
50.30436787087795
 97
        0
 92
        7
 72
     1
 73
     1
 93
        6
 10
62.23802255934348
 20
54.05436787087797
 42
0.0
 10
62.05124414740959
 20
54.05436787087797
 42
0.2719204724283023
 10
61.21284414740961
 20
53.56200602158856
 42
0.0
 10
61.21284414740961
 20
50.79672972016737
 42
0.2719204724283023
 10
62.05124414740959
 20
50.30436787087797
 42
0.0
 10
62.23802255934348
 20
50.30436787087797
 42
0.0
 97
        0
 92
        7
 72
     1
 73
     1
 93
       22
 10
66.21284414740959
 20
49.55436787087785
 42
0.414213562373041
 10
65.90034414740967
 20
49.24186787087788
 42
0.0
 10
65.90034414740967
 20
48.80436787087791
 42
0.0
 10
65.45300114740962
 20
48.80436787087791
 42
0.0
 10
65.45300114740962
 20
49.05436787087791
 42
1.0
 10
64.95300114740962
 20
49.05436787087791
 42
0.0
 10
64.95300114740962
 20
48.80436787087791
 42
0.0
 10
64.19699414740958
 20
48.80436787087791
 42
0.0
 10
62.96284414740961
 20
48.80436787087791
 42
0.0
 10
61.21284414740961
 20
48.80436787087791
 42
0.0
 10
61.21284414740961
 20
44.17936787087794
 42
0.0
 10
61.21284414740961
 20
39.55436787087794
 42
0.0
 10
62.96284414740961
 20
39.55436787087794
 42
0.0
 10
64.18159414740961
 20
39.55436787087794
 42
0.0
 10
64.19699414740958
 20
39.55436787087794
 42
0.0
 10
64.95300114740962
 20
39.55436787087794
 42
0.0
 10
64.95300114740962
 20
39.30436787087794
 42
1.0
 10
65.45300114740962
 20
39.30436787087794
 42
0.0
 10
65.45300114740962
 20
39.55436787087794
 42
0.0
 10
65.90034414740967
 20
39.55436787087794
 42
0.0
 10
65.90034414740967
 20
39.11686787087797
 42
0.4142135623730401
 10
66.21284414740959
 20
38.804367870878
 42
0.0
 97
        0
 92
        7
 72
     1
 73
     1
 93
       22
 10
71.21284414740955
 20
44.17936787087794
 42
0.0
 10
71.21284414740955
 20
48.80436787087791
 42
0.0
 10
69.46284414740967
 20
48.80436787087791
 42
0.0
 10
68.24409414740967
 20
48.80436787087791
 42
0.0
 10
68.22869414740967
 20
48.80436787087791
 42
0.0
 10
67.47268714740966
 20
48.80436787087791
 42
0.0
 10
67.47268714740966
 20
49.05436787087791
 42
1.0
 10
66.97268714740966
 20
49.05436787087791
 42
0.0
 10
66.97268714740966
 20
48.80436787087791
 42
0.0
 10
66.52534414740961
 20
48.80436787087791
 42
0.0
 10
66.52534414740961
 20
49.24186787087788
 42
0.4142135623731492
 10
66.21284414740959
 20
49.55436787087785
 42
0.0
 10
66.21284414740959
 20
38.804367870878
 42
0.41421356237315
 10
66.52534414740961
 20
39.11686787087797
 42
0.0
 10
66.52534414740961
 20
39.55436787087794
 42
0.0
 10
66.97268714740966
 20
39.55436787087794
 42
0.0
 10
66.97268714740966
 20
39.47019911039571
 42
-0.5366750419289199
 10
67.47268714740966
 20
39.47019911039571
 42
0.0
 10
67.47268714740966
 20
39.55436787087794
 42
0.0
 10
68.22869414740967
 20
39.55436787087794
 42
0.0
 10
69.46284414740967
 20
39.55436787087794
 42
0.0
 10
71.21284414740955
 20
39.55436787087794
 42
0.0
 97
        0
 92
        9
 93
        4
 72
     1
 10
46.38046713280525
 20
80.17002635236872
 11
78.11856237090046
 21
80.17002635236872
 72
     1
 10
78.11856237090046
 20
80.17002635236872
 11
78.11856237090046
 21
71.98689878035226
 72
     1
 10
78.11856237090046
 20
71.98689878035226
 11
46.38046713280525
 21
71.98689878035226
 72
     1
 10
46.38046713280525
 20
71.98689878035226
 11
46.38046713280525
 21
80.17002635236872
 97
        0
 92
        9
 93
        4
 72
     1
 10
98.53726022044746
 20
-5.442283782551875
 11
100.2519506274028
 21
-5.442283782551875
 72
     1
 10
100.2519506274028
 20
-5.442283782551875
 11
100.2519506274028
 21
-6.775931876850499
 72
     1
 10
100.2519506274028
 20
-6.775931876850499
 11
98.53726022044746
 21
-6.775931876850499
 72
     1
 10
98.53726022044746
 20
-6.775931876850499
 11
98.53726022044746
 21
-5.442283782551875
 97
        0
 92
        9
 93
        4
 72
     1
 10
83.01540635379664
 20
-4.6579560374654
 11
85.28927635457581
 21
-4.6579560374654
 72
     1
 10
85.28927635457581
 20
-4.6579560374654
 11
85.28927635457581
 21
-5.582174166814347
 72
     1
 10
85.28927635457581
 20
-5.582174166814347
 11
83.01540635379664
 21
-5.582174166814347
 72
     1
 10
83.01540635379664
 20
-5.582174166814347
 11
83.01540635379664
 21
-4.6579560374654
 97
        0
 92
        9
 93
        4
 72
     1
 10
103.0265890347281
 20
-1.050039420769557
 11
105.4471603258801
 21
-1.050039420769557
 72
     1
 10
105.4471603258801
 20
-1.050039420769557
 11
105.4471603258801
 21
-1.974257550118505
 72
     1
 10
105.4471603258801
 20
-1.974257550118505
 11
103.0265890347281
 21
-1.974257550118505
 72
     1
 10
103.0265890347281
 20
-1.974257550118505
 11
103.0265890347281
 21
-1.050039420769557
 97
        0
 92
        9
 93
        4
 72
     1
 10
102.945903325023
 20
-3.827557081094063
 11
110.4961297362123
 21
-3.827557081094063
 72
     1
 10
110.4961297362123
 20
-3.827557081094063
 11
110.4961297362123
 21
-1.949780564321599
 72
     1
 10
110.4961297362123
 20
-1.949780564321599
 11
102.945903325023
 21
-1.949780564321599
 72
     1
 10
102.945903325023
 20
-1.949780564321599
 11
102.945903325023
 21
-3.827557081094063
 97
        0
 92
        9
 93
        4
 72
     1
 10
83.01540635379664
 20
-1.050039420769557
 11
86.9323308067517
 21
-1.050039420769557
 72
     1
 10
86.9323308067517
 20
-1.050039420769557
 11
86.9323308067517
 21
-2.179639356640493
 72
     1
 10
86.9323308067517
 20
-2.179639356640493
 11
83.01540635379664
 21
-2.179639356640493
 72
     1
 10
83.01540635379664
 20
-2.179639356640493
 11
83.01540635379664
 21
-1.050039420769557
 97
        0
 92
        9
 93
        4
 72
     1
 10
83.08142193446443
 20
-3.446133726124656
 11
88.77343200093095
 21
-3.446133726124656
 72
     1
 10
88.77343200093095
 20
-3.446133726124656
 11
88.77343200093095
 21
-2.213842886992729
 72
     1
 10
88.77343200093095
 20
-2.213842886992729
 11
83.08142193446443
 21
-2.213842886992729
 72
     1
 10
83.08142193446443
 20
-2.213842886992729
 11
83.08142193446443
 21
-3.446133726124656
 97
        0
 92
        9
 93
        4
 72
     1
 10
61.89750364098859
 20
-1.241548626038188
 11
82.34277012660673
 21
-1.241548626038188
 72
     1
 10
82.34277012660673
 20
-1.241548626038188
 11
82.34277012660673
 21
-10.06881646861216
 72
     1
 10
82.34277012660673
 20
-10.06881646861216
 11
61.89750364098859
 21
-10.06881646861216
 72
     1
 10
61.89750364098859
 20
-10.06881646861216
 11
61.89750364098859
 21
-1.241548626038188
 97
        0
 75
     0
 76
     1
 52
0.0
 41
1.5
 77
     0
 78
    13
 53
50.0
 43
61.22052997181743
 44
-28.00814643088859
 45
10.7589027390113
 46
-0.9412820247389266
 79
     2
 49
1.125
 49
-12.375
 53
355.0
 43
61.22052997181743
 44
-28.00814643088859
 45
-2.081270004194999
 46
11.28288200550017
 79
     2
 49
0.9
 49
-9.899999999999998
 53
100.4514
 43
62.11710517181742
 44
-28.08658653088859
 45
8.677640725710324
 46
10.3415931309143
 79
     2
 49
0.9561028499999999
 49
-10.51713167999999
 53
46.1842
 43
61.22052997181743
 44
-25.00814643088859
 45
16.00861572938466
 46
-2.482785214935271
 79
     2
 49
1.6875
 49
-18.5625
 53
96.6356
 43
62.55458114681743
 44
-25.21504603588859
 45
14.01994058323055
 46
14.61176806350662
 79
     2
 49
1.43415432
 49
-15.775695
 53
351.1842000000001
 43
61.22052997181743
 44
-25.00814643088859
 45
14.01992917700441
 46
14.61177901387987
 79
     2
 49
1.35
 49
-14.85
 53
21.0
 43
62.72052997181742
 44
-25.75814643088859
 45
8.953605781776925
 46
-6.039283359980082
 79
     2
 49
1.125
 49
-12.375
 53
326.0
 43
62.72052997181742
 44
-25.75814643088859
 45
3.649729978823725
 46
10.87725067570279
 79
     2
 49
0.9
 49
-9.899999999999998
 53
71.45140000000001
 43
63.46666346681743
 44
-26.26142052088859
 45
12.60333942872235
 46
4.837957450649286
 79
     2
 49
0.9561028500000002
 49
-10.51713168
 53
37.5
 43
61.22052997181743
 44
-28.00814643088859
 45
0.18239782975936
 46
4.993407807469672
 79
     6
 49
0.0
 49
-9.779999999999999
 49
0.0
 49
-10.05
 49
0.0
 49
-9.9375
 53
7.499999999999999
 43
61.22052997181743
 44
-28.00814643088859
 45
3.946043061632229
 46
5.916175678235403
 79
     6
 49
0.0
 49
-5.729999999999999
 49
0.0
 49
-9.554999999999999
 49
0.0
 49
-3.787499999999999
 53
327.5
 43
57.87552997181743
 44
-28.00814643088859
 45
8.007336542586136
 46
-0.338323076015697
 79
     6
 49
0.0
 49
-3.75
 49
0.0
 49
-11.7
 49
0.0
 49
-15.525
 53
317.5
 43
56.37552997181742
 44
-28.00814643088859
 45
8.747792540135794
 46
1.501574734984764
 79
     6
 49
0.0
 49
-4.875
 49
0.0
 49
-7.769999999999999
 49
0.0
 49
-11.025
 47
0.0532527551251476
 98
       46
 10
61.83535748130589
 20
57.56283118731829
 10
63.38117310273822
 20
57.72258948324065
 10
68.01862149330384
 20
58.04210607508543
 10
70.79042974428864
 20
58.41487543223763
 10
70.73712582751602
 20
53.46236896758734
 10
69.03139743825318
 20
52.34406113244517
 10
62.68822116718104
 20
52.13105007121538
 10
61.67544522223159
 20
52.07779754222241
 10
64.0741255470516
 20
47.76432426126166
 10
68.28607617112289
 20
42.25764467991353
 10
68.65920460604399
 20
36.55959973727332
 10
68.65920460604399
 20
36.55959973727332
 10
68.65920460604399
 20
36.55959973727332
 10
68.65920460604399
 20
36.55959973727332
 10
68.65920460604399
 20
36.55959973727332
 10
68.65920460604399
 20
36.55959973727332
 10
68.65920460604399
 20
36.55959973727332
 10
68.65920460604399
 20
36.55959973727332
 10
68.65920460604399
 20
36.55959973727332
 10
68.65920460604399
 20
36.55959973727332
 10
68.65920460604399
 20
36.55959973727332
 10
68.65920460604399
 20
36.55959973727332
 10
68.65920460604399
 20
36.55959973727332
 10
68.65920460604399
 20
36.55959973727332
 10
68.65920460604399
 20
36.55959973727332
 10
68.65920460604399
 20
36.55959973727332
 10
68.65920460604399
 20
36.55959973727332
 10
68.65920460604399
 20
36.55959973727332
 10
68.65920460604399
 20
36.55959973727332
 10
68.8224558322737
 20
30.30671101736314
 10
68.8224558322737
 20
30.30671101736314
 10
68.8224558322737
 20
30.30671101736314
 10
68.8224558322737
 20
30.30671101736314
 10
68.8224558322737
 20
30.30671101736314
 10
68.8224558322737
 20
30.30671101736314
 10
68.8224558322737
 20
30.30671101736314
 10
68.8224558322737
 20
30.30671101736314
 10
68.8224558322737
 20
30.30671101736314
 10
68.8224558322737
 20
30.30671101736314
 10
68.8224558322737
 20
30.30671101736314
 10
68.8224558322737
 20
30.30671101736314
 10
68.8224558322737
 20
30.30671101736314
 10
68.8224558322737
 20
30.30671101736314
 10
68.8224558322737
 20
30.30671101736314
 10
68.8224558322737
 20
30.30671101736314
 10
68.8224558322737
 20
30.30671101736314
1001
ACAD
1010
0.0
1020
0.0
1030
0.0
  0
HATCH
  5
1DB63
330
1F
100
AcDbEntity
  8
Conc
100
AcDbHatch
 10
0.0
 20
0.0
 30
0.0
210
0.0
220
0.0
230
1.0
  2
AR-CONC
 70
     0
 71
     1
 91
        4
 92
        7
 72
     1
 73
     1
 93
        6
 10
70.37444414740955
 20
34.30436787087791
 42
0.2719204724282933
 10
71.21284414740955
 20
34.79672972016731
 42
0.0
 10
71.21284414740955
 20
37.59523390362051
 42
0.2611854144230707
 10
70.39386110897424
 20
38.05436787087791
 42
0.0
 10
66.21284414740959
 20
38.05436787087791
 42
0.0
 10
66.21284414740959
 20
34.30436787087791
 42
0.0
 97
        6
330
1D78A
330
1D76A
330
1D83C
330
1D76B
330
1D78B
330
1D7CB
 92
        7
 72
     1
 73
     1
 93
        6
 10
66.21284414740959
 20
34.30436787087792
 42
0.0
 10
66.21284414740959
 20
38.05436787087791
 42
0.0
 10
62.05124414740959
 20
38.05436787087791
 42
0.2719204724283012
 10
61.21284414740961
 20
37.56200602158851
 42
0.0
 10
61.21284414740961
 20
34.79672972016731
 42
0.2719204724283013
 10
62.05124414740959
 20
34.30436787087791
 42
0.0
 97
        6
330
1D76A
330
1D789
330
1D7CA
330
1D788
330
1D76B
330
1D83C
 92
        7
 72
     1
 73
     1
 93
       16
 10
66.21284414740959
 20
33.5543678708778
 42
0.4142135623730418
 10
65.90034414740967
 20
33.24186787087783
 42
0.0
 10
65.90034414740967
 20
32.80436787087785
 42
0.0
 10
65.45300114740962
 20
32.80436787087785
 42
0.0
 10
65.45300114740962
 20
33.05436787087785
 42
1.0
 10
64.95300114740962
 20
33.05436787087785
 42
0.0
 10
64.95300114740962
 20
32.80436787087785
 42
0.0
 10
64.19699414740958
 20
32.80436787087785
 42
0.0
 10
63.64841719586369
 20
32.80436787087785
 42
0.0
 10
62.96284414740961
 20
32.80436787087785
 42
0.0
 10
61.21284414740961
 20
32.80436787087785
 42
0.0
 10
61.21284414740961
 20
28.17936787087788
 42
0.0
 10
61.21284414740961
 20
25.01601013482926
 42
0.0
 10
65.96284414740974
 20
25.01601013482926
 42
0.0
 10
66.08784414740974
 20
24.67257545739768
 42
0.0
 10
66.21284414740959
 20
25.01601013482871
 42
0.0
 97
       14
330
1D7B5
330
1D7B3
330
1D79F
330
1D7B1
330
1D7AF
330
1D7B0
330
1D7A0
330
1D7A1
330
1D7A2
330
1D7A3
330
1D7CA
330
1D82C
330
1D836
330
1D83C
 92
        7
 72
     1
 73
     1
 93
       16
 10
66.21284414740959
 20
25.01601013482872
 42
0.0
 10
66.3378441474099
 20
25.359444812261
 42
0.0
 10
66.46284414740975
 20
25.01601013482926
 42
0.0
 10
71.21284414740955
 20
25.01601013482926
 42
0.0
 10
71.21284414740955
 20
28.17936787087788
 42
0.0
 10
71.21284414740955
 20
32.80436787087785
 42
0.0
 10
69.46284414740967
 20
32.80436787087785
 42
0.0
 10
68.24409414740967
 20
32.80436787087785
 42
0.0
 10
68.22869414740967
 20
32.80436787087785
 42
0.0
 10
67.47268714740966
 20
32.80436787087785
 42
0.0
 10
67.47268714740966
 20
33.05436787087785
 42
1.0
 10
66.97268714740966
 20
33.05436787087785
 42
0.0
 10
66.97268714740966
 20
32.80436787087785
 42
0.0
 10
66.52534414740961
 20
32.80436787087785
 42
0.0
 10
66.52534414740961
 20
33.24186787087783
 42
0.4142135623731483
 10
66.21284414740959
 20
33.5543678708778
 42
0.0
 97
       14
330
1D7BB
330
1D7BA
330
1D7B9
330
1D7B8
330
1D7C8
330
1D7C7
330
1D7C9
330
1D7B7
330
1D7B4
330
1D7B5
330
1D83C
330
1D836
330
1D82D
330
1D7CB
 75
     0
 76
     1
 52
0.0
 41
1.5
 77
     0
 78
    13
 53
50.0
 43
61.22052997181743
 44
-28.00814643088859
 45
10.7589027390113
 46
-0.9412820247389266
 79
     2
 49
1.125
 49
-12.375
 53
355.0
 43
61.22052997181743
 44
-28.00814643088859
 45
-2.081270004194999
 46
11.28288200550017
 79
     2
 49
0.9
 49
-9.899999999999998
 53
100.4514
 43
62.11710517181742
 44
-28.08658653088859
 45
8.677640725710324
 46
10.3415931309143
 79
     2
 49
0.9561028499999999
 49
-10.51713167999999
 53
46.1842
 43
61.22052997181743
 44
-25.00814643088859
 45
16.00861572938466
 46
-2.482785214935271
 79
     2
 49
1.6875
 49
-18.5625
 53
96.6356
 43
62.55458114681743
 44
-25.21504603588859
 45
14.01994058323055
 46
14.61176806350662
 79
     2
 49
1.43415432
 49
-15.775695
 53
351.1842000000001
 43
61.22052997181743
 44
-25.00814643088859
 45
14.01992917700441
 46
14.61177901387987
 79
     2
 49
1.35
 49
-14.85
 53
21.0
 43
62.72052997181742
 44
-25.75814643088859
 45
8.953605781776925
 46
-6.039283359980082
 79
     2
 49
1.125
 49
-12.375
 53
326.0
 43
62.72052997181742
 44
-25.75814643088859
 45
3.649729978823725
 46
10.87725067570279
 79
     2
 49
0.9
 49
-9.899999999999998
 53
71.45140000000001
 43
63.46666346681743
 44
-26.26142052088859
 45
12.60333942872235
 46
4.837957450649286
 79
     2
 49
0.9561028500000002
 49
-10.51713168
 53
37.5
 43
61.22052997181743
 44
-28.00814643088859
 45
0.18239782975936
 46
4.993407807469672
 79
     6
 49
0.0
 49
-9.779999999999999
 49
0.0
 49
-10.05
 49
0.0
 49
-9.9375
 53
7.499999999999999
 43
61.22052997181743
 44
-28.00814643088859
 45
3.946043061632229
 46
5.916175678235403
 79
     6
 49
0.0
 49
-5.729999999999999
 49
0.0
 49
-9.554999999999999
 49
0.0
 49
-3.787499999999999
 53
327.5
 43
57.87552997181743
 44
-28.00814643088859
 45
8.007336542586136
 46
-0.338323076015697
 79
     6
 49
0.0
 49
-3.75
 49
0.0
 49
-11.7
 49
0.0
 49
-15.525
 53
317.5
 43
56.37552997181742
 44
-28.00814643088859
 45
8.747792540135794
 46
1.501574734984764
 79
     6
 49
0.0
 49
-4.875
 49
0.0
 49
-7.769999999999999
 49
0.0
 49
-11.025
 47
0.0262012318538307
 98
        4
 10
67.54660153061923
 20
35.2369389318248
 10
65.00263619717259
 20
35.2107377971272
 10
64.7141454666422
 20
29.99669261451581
 10
68.25471592818075
 20
30.0490951202255
1001
ACAD
1010
0.0
1020
0.0
1030
0.0
  0
LINE
  5
1DB64
330
1F
100
AcDbEntity
  8
SteelBars
100
AcDbLine
 10
64.21284414740958
 20
61.80436787087799
 30
0.0
 11
64.21284414740958
 21
72.5268395698686
 31
0.0
  0
LINE
  5
1DB65
330
1F
100
AcDbEntity
  8
SteelBars
100
AcDbLine
 10
68.21284414740958
 20
61.80436787087799
 30
0.0
 11
68.21284414740958
 21
72.5268395698686
 31
0.0
  0
LINE
  5
1DB6A
330
1F
100
AcDbEntity
  8
SteelBars
  6
HIDDENX2
100
AcDbLine
 10
64.46284414740958
 20
61.80436787087799
 30
0.0
 11
64.46284414740958
 21
72.5268395698686
 31
0.0
  0
LINE
  5
1DB6B
330
1F
100
AcDbEntity
  8
SteelBars
  6
HIDDENX2
100
AcDbLine
 10
67.96284414740958
 20
61.80436787087799
 30
0.0
 11
67.96284414740958
 21
72.5268395698686
 31
0.0
  0
LWPOLYLINE
  5
1DB7B
330
1F
100
AcDbEntity
  8
0
  6
Continuous
100
AcDbPolyline
 90
        6
 70
     0
 43
0.0
 10
63.21284414740958
 20
72.5268395698686
 10
65.96284414740963
 20
72.5268395698686
 10
66.08784414740961
 20
72.18340489243686
 10
66.33784414740961
 20
72.87027424730067
 10
66.46284414740962
 20
72.5268395698686
 10
69.21284414740958
 20
72.5268395698686
  0
LEADER
  5
1DB7D
330
1F
100
AcDbEntity
  8
Text
100
AcDbLeader
  3
FBR
 73
     0
 40
0.6500000000000002
 41
6.747619047619037
 76
     2
 10
67.96284414740958
 20
70.40967915388617
 30
0.0
 10
75.24471666518879
 20
70.40967915388617
 30
0.0
340
1DB7E
1001
ACAD
1000
DSTYLE
1002
{
1070
    49
1040
0.18
1002
}
  0
MTEXT
  5
1DB7E
102
{ACAD_REACTORS
330
1DB7D
102
}
330
1F
100
AcDbEntity
  8
Text
100
AcDbMText
 10
75.54471666518878
 20
70.40967915388617
 30
0.0
 40
0.65
 41
0.0
 46
0.0
 71
     4
 72
     1
  1
H.S.S. column
  7
Logix
 73
     1
 44
1.0
  0
LEADER
  5
1DB81
102
{ACAD_XDICTIONARY
360
1DB83
102
}
102
{ACAD_REACTORS
330
1DB84
102
}
330
1F
100
AcDbEntity
  8
Text
100
AcDbLeader
  3
FBR
 73
     0
 40
3.404761904761905
 41
16.2190476190476
 76
     3
 10
66.21284414740959
 20
61.80436787087799
 30
0.0
 10
69.46407731648503
 20
63.70509446949089
 30
0.0
 10
75.24471666518879
 20
63.70509446949089
 30
0.0
340
1DB82
1001
ACAD
1000
DSTYLE
1002
{
1070
    49
1040
0.18
1002
}
  0
MTEXT
  5
1DB82
102
{ACAD_REACTORS
330
1DB81
102
}
330
1F
100
AcDbEntity
  8
Text
100
AcDbMText
 10
75.54471666518878
 20
63.70509446949089
 30
0.0
 40
0.65
 41
0.0
 46
0.0
 71
     4
 72
     1
  1
\A1;Base plate c/w anchor bolts.\PProvide 1" non-shrink \Pexpanded grout u/s base plate.
  7
Logix
 73
     1
 44
1.0
  0
LEADER
  5
1DB85
330
1F
100
AcDbEntity
  8
Text
100
AcDbLeader
  3
FBR
 73
     0
 40
2.073809523809523
 41
11.14285714285714
 76
     2
 10
72.36045656143938
 20
56.40325031450877
 30
0.0
 10
75.24471666518879
 20
56.40325031450877
 30
0.0
340
1DB88
1001
ACAD
1000
DSTYLE
1002
{
1070
    49
1040
0.18
1002
}
  0
MTEXT
  5
1DB88
102
{ACAD_REACTORS
330
1DB85
102
}
330
1F
100
AcDbEntity
  8
Text
100
AcDbMText
 10
75.54471666518878
 20
56.40325031450877
 30
0.0
 40
0.65
 41
0.0
 46
0.0
 71
     4
 72
     1
  1
LOGIX Standard Forms\P(10" [254mm] shown)
  7
Logix
 73
     1
 44
1.0
  0
LEADER
  5
1DB8C
330
1F
100
AcDbEntity
  8
Text
100
AcDbLeader
  3
FBR
 73
     0
 40
2.073809523809523
 41
12.00952380952381
 76
     2
 10
67.22268714740966
 20
39.30436787087794
 30
0.0
 10
75.24471666518879
 20
39.30436787087794
 30
0.0
340
1DB8F
1001
ACAD
1000
DSTYLE
1002
{
1070
    49
1040
0.18
1002
}
  0
MTEXT
  5
1DB8F
102
{ACAD_REACTORS
330
1DB8C
102
}
330
1F
100
AcDbEntity
  8
Text
100
AcDbMText
 10
75.54471666518878
 20
39.30436787087794
 30
0.0
 40
0.65
 41
0.0
 46
0.0
 71
     4
 72
     1
  1
Horizontal reinforcement\P(see Note)
  7
Logix
 73
     1
 44
1.0
  0
LEADER
  5
1DB90
330
1F
100
AcDbEntity
  8
Text
100
AcDbLeader
  3
FBR
 73
     0
 40
2.073809523809523
 41
10.80238095238095
 76
     2
 10
66.21284414740959
 20
30.93199376880844
 30
0.0
 10
75.24471666518877
 20
30.93199376880844
 30
0.0
340
1DB93
1001
ACAD
1000
DSTYLE
1002
{
1070
    49
1040
0.18
1002
}
  0
MTEXT
  5
1DB93
102
{ACAD_REACTORS
330
1DB90
102
}
330
1F
100
AcDbEntity
  8
Text
100
AcDbMText
 10
75.54471666518877
 20
30.93199376880844
 30
0.0
 40
0.65
 41
0.0
 46
0.0
 71
     4
 72
     1
  1
Vertical reinforcement\P(see Note)
  7
Logix
 73
     1
 44
1.0
  0
MTEXT
  5
1DCB8
102
{ACAD_REACTORS
330
1DCD8
102
}
330
1F
100
AcDbEntity
  8
Title Block
100
AcDbMText
 10
48.40316502835003
 20
21.69696207422303
 30
0.0
 40
1.742687866300558
 41
9.021422034764979
 46
0.0
 71
     5
 72
     5
  1
{\fSansSerif|b1|i0|c2|p2;LOGIX}
 73
     1
 44
1.0
  0
HATCH
  5
1DCB9
102
{ACAD_REACTORS
330
1DCD8
102
}
330
1F
100
AcDbEntity
  8
Title Block
 62
    12
420
 14024704
100
AcDbHatch
 10
0.0
 20
0.0
 30
0.0
210
0.0
220
0.0
230
1.0
  2
SOLID
 70
     1
 71
     0
 91
        1
 92
        1
 93
        4
 72
     1
 10
50.29214283056768
 20
22.79957930109177
 11
50.2921428305677
 21
23.16217394567906
 72
     1
 10
50.29214283056771
 20
23.16217394567906
 11
49.92747684881637
 21
23.16469246921066
 72
     1
 10
49.92747684881637
 20
23.16469246921067
 11
49.92747684881637
 21
22.80209782462337
 72
     1
 10
49.92747684881637
 20
22.80209782462337
 11
50.29214283056769
 21
22.79957930109177
 97
        0
 75
     0
 76
     1
 98
        1
 10
50.39395895500274
 20
22.92735083220555
450
        0
451
        0
460
0.0
461
0.0
452
        0
462
0.0
453
        0
470

  0
TEXT
  5
1DCBA
102
{ACAD_REACTORS
330
1DCD8
102
}
330
1F
100
AcDbEntity
  8
Title Block
100
AcDbText
 10
45.8568163167352
 20
20.48351979383847
 30
0.0
 40
0.2772457969114525
  1
INSULATED CONCRETE FORMS
  7
TITLE
100
AcDbText
  0
LWPOLYLINE
  5
1DCBB
102
{ACAD_REACTORS
330
1DCD8
102
}
330
1F
100
AcDbEntity
  8
Title Block
100
AcDbPolyline
 90
        3
 70
     0
 43
0.3168523393273742
 10
44.25432388508846
 20
21.24522379535669
 10
44.25432388508846
 20
20.32373931061401
 10
45.90397615439012
 20
20.32373931061401
  0
HATCH
  5
1DCBC
102
{ACAD_REACTORS
330
1DCD8
102
}
330
1F
100
AcDbEntity
  8
Title Block
 62
    12
420
 14024704
100
AcDbHatch
 10
0.0
 20
0.0
 30
0.0
210
0.0
220
0.0
230
1.0
  2
SOLID
 70
     1
 71
     0
 91
        1
 92
        1
 93
        4
 72
     1
 10
44.78164476199623
 20
20.48057442869165
 11
44.78164476199623
 21
20.84850125811663
 72
     1
 10
44.78164476199623
 20
20.84850125811663
 11
44.41011676825577
 21
20.84850125811663
 72
     1
 10
44.41011676825577
 20
20.84850125811663
 11
44.41011676825577
 21
20.48057442869165
 72
     1
 10
44.41011676825577
 20
20.48057442869165
 11
44.78164476199623
 21
20.48057442869165
 97
        0
 75
     0
 76
     1
 98
        1
 10
44.65492207556844
 20
20.65288429274406
450
        0
451
        0
460
0.0
461
0.0
452
        0
462
0.0
453
        0
470

  0
LWPOLYLINE
  5
1DCBD
102
{ACAD_REACTORS
330
1DCD8
102
}
330
1F
100
AcDbEntity
  8
Title Block
 62
    10
100
AcDbPolyline
 90
        4
 70
     1
 43
0.0
 10
44.78164476199623
 20
20.48057442869165
 10
44.41011676825577
 20
20.48057442869165
 10
44.41011676825577
 20
20.84850125811663
 10
44.78164476199623
 20
20.84850125811663
  0
MTEXT
  5
1DCBE
102
{ACAD_XDICTIONARY
360
1DCBF
102
}
102
{ACAD_REACTORS
330
1DCD8
102
}
330
1F
100
AcDbEntity
  8
Title Block
100
AcDbMText
 10
52.81378440794322
 20
22.56557425809245
 30
0.0
 40
0.4224697857698324
 41
0.8311605016691069
 46
0.0
 71
     3
 72
     5
  1
{\fArial|b0|i0|c0|p34;\H1.0833x;®}
 73
     1
 44
1.0
  0
MTEXT
  5
1DCC0
102
{ACAD_XDICTIONARY
360
1DCC1
102
}
102
{ACAD_REACTORS
330
1DCD8
102
}
330
1F
100
AcDbEntity
  8
0
 48
0.01
100
AcDbMText
 10
44.08018991494881
 20
19.76715597576758
 30
0.0
 40
0.5390343229315095
 41
8.720024725233399
 46
0.0
 71
     1
 72
     5
  1
\pi0.043;{\C256;\c16777215;Build Anything \fCalibri|b1|i0|c0|p34;Better.}
  7
Logix
 73
     1
 44
1.0
 90
        1
 63
    83
 45
1.5
441
        0
1001
AcadAnnotative
1000
AnnotativeData
1002
{
1070
     1
1070
     1
1002
}
  0
MTEXT
  5
1DCC5
102
{ACAD_REACTORS
330
1DCD8
102
}
330
1F
100
AcDbEntity
  8
Title Block
100
AcDbMText
 10
48.17311596016452
 20
17.57165304060022
 30
0.0
 40
0.4224697857698324
 41
12.1751750494407
 46
0.0
 71
     5
 72
     5
  1
{\fArial|b0|i0|c0|p34;1-866-944-0153}
 73
     1
 44
1.0
  0
MTEXT
  5
1DCC6
102
{ACAD_REACTORS
330
1DCD8
102
}
330
1F
100
AcDbEntity
  8
Title Block
100
AcDbMText
 10
48.17311596016452
 20
18.22898050743354
 30
0.0
 40
0.4224697857698324
 41
12.1751750494407
 46
0.0
 71
     5
 72
     5
  1
{\fArial|b0|i0|c0|p34;www.logixicf.com}
 73
     1
 44
1.0
  0
VIEWPORT
  5
11F07
330
5D
100
AcDbEntity
 67
     1
  8
0
100
AcDbViewport
 10
5.249999639556163
 20
3.999999883606677
 30
0.0
 40
21.60469660038833
 41
8.992999745766947
 68
     1
 69
     1
 12
5.249999639556163
 22
3.999999883606677
 13
0.0
 23
0.0
 14
0.5
 24
0.5
 15
0.5
 25
0.5
 16
0.0
 26
0.0
 36
1.0
 17
0.0
 27
0.0
 37
0.0
 42
50.0
 43
0.0
 44
0.0
 45
8.992999745766947
 50
0.0
 51
0.0
 72
  1000
 90
    32800
  1

281
     0
 71
     1
 74
     0
110
0.0
120
0.0
130
0.0
111
1.0
121
0.0
131
0.0
112
0.0
122
1.0
132
0.0
 79
     0
146
0.0
170
     0
 61
     5
348
1AD72
292
     1
282
     1
141
0.0
142
0.0
 63
   250
421
  3355443
  0
VIEWPORT
  5
11F09
330
5D
100
AcDbEntity
 67
     1
  8
Dim
100
AcDbViewport
 10
5.24999976158142
 20
3.99999976158142
 30
0.0
 40
8.399999618530271
 41
6.399999618530272
 68
     2
 69
     2
 12
70.24570646213799
 22
55.11630672257945
 13
0.0
 23
0.0
 14
0.5
 24
0.5
 15
0.5
 25
0.5
 16
0.0
 26
0.0
 36
1.0
 17
0.0
 27
0.0
 37
0.0
 42
50.0
 43
0.0
 44
0.0
 45
113.4515982453417
 50
0.0
 51
0.0
 72
  1000
 90
    32864
  1

281
     0
 71
     1
 74
     0
110
0.0
120
0.0
130
0.0
111
1.0
121
0.0
131
0.0
112
0.0
122
1.0
132
0.0
 79
     0
146
0.0
170
     0
 61
     5
348
1AD72
292
     1
282
     1
141
0.0
142
0.0
 63
   250
421
  3355443
  0
ENDSEC
  0
SECTION
  2
OBJECTS
  0
DICTIONARY
  5
C
330
0
100
AcDbDictionary
281
     1
  3
ACAD_CIP_PREVIOUS_PRODUCT_INFO
350
1DC89
  3
ACAD_COLOR
350
73
  3
ACAD_DETAILVIEWSTYLE
350
1DC79
  3
ACAD_FIELDLIST
350
7B86
  3
ACAD_GROUP
350
D
  3
ACAD_LAYOUT
350
1A
  3
ACAD_MATERIAL
350
72
  3
ACAD_MLEADERSTYLE
350
1AD9F
  3
ACAD_MLINESTYLE
350
17
  3
ACAD_PLOTSETTINGS
350
19
  3
ACAD_PLOTSTYLENAME
350
E
  3
ACAD_SCALELIST
350
1AD7D
  3
ACAD_SECTIONVIEWSTYLE
350
1DC77
  3
ACAD_TABLESTYLE
350
86
  3
ACAD_VISUALSTYLE
350
1AD6C
  3
AcadDim
350
1AC00
  3
ACDB_RECOMPOSE_DATA
350
1DD06
  3
AcDbVariableDictionary
350
66
  3
AcDsDecomposeData
350
1DD0C
  3
AEC_CLASSIFICATION_SYSTEM_DEFS
350
7B87
  3
AEC_PROPERTY_SET_DEFS
350
1DCB4
  3
ASE_INDEX_DICTIONARY
350
1A4E5
  3
BNS_VARIABLES
350
1401
  0
DICTIONARY
  5
1ADF7
330
8
100
AcDbDictionary
280
     1
281
     1
  0
DICTIONARY
  5
8D
330
2
100
AcDbDictionary
280
     1
281
     1
  3
ACAD_LAYERFILTERS
360
1AC5D
  3
ACAD_LAYERSTATES
360
11EFF
  3
ACLYDICTIONARY
360
1AC5C
  0
DICTIONARY
  5
1ADC7
330
10
100
AcDbDictionary
280
     1
281
     1
  3
ADSK_XREC_LAYER_RECONCILED
360
1ADC8
  0
DICTIONARY
  5
1ADC9
330
8B
100
AcDbDictionary
280
     1
281
     1
  3
ADSK_XREC_LAYER_RECONCILED
360
1ADCA
  0
DICTIONARY
  5
1ADCB
330
413
100
AcDbDictionary
280
     1
281
     1
  3
ADSK_XREC_LAYER_RECONCILED
360
1ADCC
  0
DICTIONARY
  5
1ADCD
330
770
100
AcDbDictionary
280
     1
281
     1
  3
ADSK_XREC_LAYER_RECONCILED
360
1ADCE
  0
DICTIONARY
  5
1ADCF
330
E05
100
AcDbDictionary
280
     1
281
     1
  3
ADSK_XREC_LAYER_RECONCILED
360
1ADD0
  0
DICTIONARY
  5
1ADD1
330
13AF
100
AcDbDictionary
280
     1
281
     1
  3
ADSK_XREC_LAYER_RECONCILED
360
1ADD2
  0
DICTIONARY
  5
1ADD3
330
32CE
100
AcDbDictionary
280
     1
281
     1
  3
ADSK_XREC_LAYER_RECONCILED
360
1ADD4
  0
DICTIONARY
  5
1ADD5
330
7B7D
100
AcDbDictionary
280
     1
281
     1
  3
ADSK_XREC_LAYER_RECONCILED
360
1ADD6
  0
DICTIONARY
  5
1ADD7
330
11F4A
100
AcDbDictionary
280
     1
281
     1
  3
ADSK_XREC_LAYER_RECONCILED
360
1ADD8
  0
DICTIONARY
  5
1ADD9
330
121C7
100
AcDbDictionary
280
     1
281
     1
  3
ADSK_XREC_LAYER_RECONCILED
360
1ADDA
  0
DICTIONARY
  5
1ADDB
330
121CA
100
AcDbDictionary
280
     1
281
     1
  3
ADSK_XREC_LAYER_RECONCILED
360
1ADDC
  0
DICTIONARY
  5
1ADDD
330
121CF
100
AcDbDictionary
280
     1
281
     1
  3
ADSK_XREC_LAYER_RECONCILED
360
1ADDE
  0
DICTIONARY
  5
1ADDF
330
121E2
100
AcDbDictionary
280
     1
281
     1
  3
ADSK_XREC_LAYER_RECONCILED
360
1ADE0
  0
DICTIONARY
  5
1ADE1
330
121F7
100
AcDbDictionary
280
     1
281
     1
  3
ADSK_XREC_LAYER_RECONCILED
360
1ADE2
  0
DICTIONARY
  5
1ADE3
330
12238
100
AcDbDictionary
280
     1
281
     1
  3
ADSK_XREC_LAYER_RECONCILED
360
1ADE4
  0
DICTIONARY
  5
1ADE5
330
12273
100
AcDbDictionary
280
     1
281
     1
  3
ADSK_XREC_LAYER_RECONCILED
360
1ADE6
  0
DICTIONARY
  5
1ADE7
330
1233D
100
AcDbDictionary
280
     1
281
     1
  3
ADSK_XREC_LAYER_RECONCILED
360
1ADE8
  0
DICTIONARY
  5
1ADE9
330
1A6BC
100
AcDbDictionary
280
     1
281
     1
  3
ADSK_XREC_LAYER_RECONCILED
360
1ADEA
  0
DICTIONARY
  5
1ADEB
330
1AC4E
100
AcDbDictionary
280
     1
281
     1
  3
ADSK_XREC_LAYER_RECONCILED
360
1ADEC
  0
DICTIONARY
  5
1C190
330
1C18F
100
AcDbDictionary
280
     1
281
     1
  0
DICTIONARY
  5
1DC8C
330
1DC8B
100
AcDbDictionary
280
     1
281
     1
  0
DICTIONARY
  5
39A
330
1F
100
AcDbDictionary
280
     1
281
     1
  3
ACAD_SORTENTS
360
39B
  0
DICTIONARY
  5
1ADB3
330
7B76
100
AcDbDictionary
280
     1
281
     1
  0
DICTIONARY
  5
1BBBB
330
1BA69
100
AcDbDictionary
280
     1
281
     1
  3
ACAD_SORTENTS
360
1BBBC
  0
DICTIONARY
  5
1BBC2
330
1BBBF
100
AcDbDictionary
280
     1
281
     1
  3
ACAD_SORTENTS
360
1BBC3
  0
DICTIONARY
  5
1DC6C
330
7BAF
100
AcDbDictionary
280
     1
281
     1
  3
ACAD_MTEXT_2008_RT
360
1DD03
  0
DICTIONARY
  5
1DB83
330
1DB81
100
AcDbDictionary
280
     1
281
     1
  3
ACAD_DIMASSOC
360
1DB84
  0
DICTIONARY
  5
1DCBF
330
1DCBE
100
AcDbDictionary
280
     1
281
     1
  3
ACAD_MTEXT_2008_RT
360
1DD04
  0
DICTIONARY
  5
1DCC1
330
1DCC0
100
AcDbDictionary
280
     1
281
     1
  3
ACAD_MTEXT_2008_RT
360
1DD05
  3
AcDbContextDataManager
360
1DCC2
  0
XRECORD
  5
1DC89
102
{ACAD_REACTORS
330
C
102
}
330
C
100
AcDbXrecord
280
     1
300
ACD
300
2022
300

  0
DICTIONARY
  5
73
102
{ACAD_REACTORS
330
C
102
}
330
C
100
AcDbDictionary
281
     1
  0
DICTIONARY
  5
1DC79
102
{ACAD_REACTORS
330
C
102
}
330
C
100
AcDbDictionary
281
     1
  3
Imperial24
350
1DC7A
  0
FIELDLIST
  5
7B86
102
{ACAD_REACTORS
330
C
102
}
330
C
100
AcDbIdSet
 90
        0
100
AcDbFieldList
  0
DICTIONARY
  5
D
102
{ACAD_REACTORS
330
C
102
}
330
C
100
AcDbDictionary
281
     1
  3
*A1
350
1DCD8
  0
DICTIONARY
  5
1A
102
{ACAD_REACTORS
330
C
102
}
330
C
100
AcDbDictionary
281
     1
  3
Layout1
350
59
  3
Layout2
350
5E
  3
Model
350
22
  0
DICTIONARY
  5
72
102
{ACAD_REACTORS
330
C
102
}
330
C
100
AcDbDictionary
281
     1
  3
ByBlock
350
1AD5C
  3
ByLayer
350
1AD54
  3
Global
350
1AD64
  0
DICTIONARY
  5
1AD9F
102
{ACAD_REACTORS
330
C
102
}
330
C
100
AcDbDictionary
281
     1
  3
Standard
350
1ADA0
  0
DICTIONARY
  5
17
102
{ACAD_REACTORS
330
C
102
}
330
C
100
AcDbDictionary
281
     1
  3
Standard
350
18
  0
DICTIONARY
  5
19
102
{ACAD_REACTORS
330
C
102
}
330
C
100
AcDbDictionary
281
     1
  0
ACDBDICTIONARYWDFLT
  5
E
102
{ACAD_REACTORS
330
C
102
}
330
C
100
AcDbDictionary
281
     1
  3
Normal
350
F
100
AcDbDictionaryWithDefault
340
F
  0
DICTIONARY
  5
1AD7D
102
{ACAD_REACTORS
330
C
102
}
330
C
100
AcDbDictionary
281
     1
  3
A0
350
1AD7E
  3
A1
350
1AD7F
  3
A2
350
1AD80
  3
A3
350
1AD81
  3
A4
350
1AD82
  3
A5
350
1AD83
  3
A6
350
1AD84
  3
A7
350
1AD85
  3
A8
350
1AD86
  3
A9
350
1AD87
  3
B0
350
1AD88
  3
B1
350
1AD89
  3
B2
350
1AD8A
  3
B3
350
1AD8B
  3
B4
350
1AD8C
  3
B5
350
1AD8D
  3
B6
350
1AD8E
  3
B7
350
1AD8F
  3
B8
350
1AD90
  3
B9
350
1AD91
  3
C0
350
1AD92
  3
C1
350
1AD93
  3
C2
350
1AD94
  3
C3
350
1AD95
  3
C4
350
1AD96
  3
C5
350
1AD97
  3
C6
350
1AD98
  3
C7
350
1AD99
  3
C8
350
1AD9A
  3
C9
350
1AD9B
  3
D0
350
1AD9C
  3
D1
350
1AD9D
  3
D2
350
1AD9E
  0
DICTIONARY
  5
1DC77
102
{ACAD_REACTORS
330
C
102
}
330
C
100
AcDbDictionary
281
     1
  3
Imperial24
350
1DC78
  0
DICTIONARY
  5
86
102
{ACAD_REACTORS
330
C
102
}
330
C
100
AcDbDictionary
281
     1
  3
Example1
350
37C9
  3
Example2
350
36AB
  3
Standard
350
87
  0
DICTIONARY
  5
1AD6C
102
{ACAD_REACTORS
330
C
102
}
330
C
100
AcDbDictionary
281
     1
  3
2dWireframe
350
1AD72
  3
3D Hidden
350
1AD74
  3
3dWireframe
350
1AD73
  3
Basic
350
1AD71
  3
Brighten
350
1AD78
  3
ColorChange
350
1AD7C
  3
Conceptual
350
1AD75
  3
Dim
350
1AD77
  3
EdgeColorOff
350
1DC3A
  3
Facepattern
350
1AD7B
  3
Flat
350
1AD6D
  3
FlatWithEdges
350
1AD6E
  3
Gouraud
350
1AD6F
  3
GouraudWithEdges
350
1AD70
  3
Hidden
350
1DC71
  3
JitterOff
350
1DC38
  3
Linepattern
350
1AD7A
  3
OverhangOff
350
1DC39
  3
Realistic
350
1AD76
  3
Shaded
350
1DC76
  3
Shaded with edges
350
1DC75
  3
Shades of Gray
350
1DC72
  3
Sketchy
350
1DC73
  3
Thicken
350
1AD79
  3
Wireframe
350
1DC70
  3
X-Ray
350
1DC74
  0
XRECORD
  5
1AC00
102
{ACAD_REACTORS
330
C
102
}
330
C
100
AcDbXrecord
280
     1
 90
   990106
  3

 60
     0
 61
     0
 62
     1
 63
     3
 64
     0
 65
     0
 66
     0
 67
     3
 68
     1
 69
     0
 70
     0
 71
     0
 72
     0
 40
0.0
170
     0
340
0
  0
XRECORD
  5
1DD06
102
{ACAD_REACTORS
330
C
102
}
330
C
100
AcDbXrecord
280
     1
 90
        1
330
87
330
36AB
330
37C9
330
7BAF
330
1DCBE
330
1DCC0
  0
DICTIONARY
  5
66
102
{ACAD_REACTORS
330
C
102
}
330
C
100
AcDbDictionary
281
     1
  3
CANNOSCALE
350
1AE21
  3
CMLEADERSTYLE
350
1AE20
  3
CTABLESTYLE
350
364
  3
CVIEWDETAILSTYLE
350
1DCEE
  3
CVIEWSECTIONSTYLE
350
1DCEF
  3
DIMASSOC
350
67
  3
HIDETEXT
350
6B
  3
INDEXCTL
350
1AE23
  3
LAYEREVAL
350
1DC55
  3
LAYERNOTIFY
350
1DC56
  3
LIGHTINGUNITS
350
1AF22
  3
MSLTSCALE
350
1AF21
  3
PROJECTNAME
350
8305
  3
SORTENTS
350
1AE22
  0
DICTIONARY
  5
1DD0C
102
{ACAD_REACTORS
330
C
102
}
330
C
100
AcDbDictionary
281
     1
  3
AcDsRecords
350
1DD0E
  3
AcDsSchemas
350
1DD0D
1001
ACAD
1070
     2
  0
DICTIONARY
  5
7B87
102
{ACAD_REACTORS
330
C
102
}
330
C
100
AcDbDictionary
281
     1
  0
DICTIONARY
  5
1DCB4
102
{ACAD_REACTORS
330
C
102
}
330
C
100
AcDbDictionary
281
     1
  0
DICTIONARY
  5
1A4E5
102
{ACAD_REACTORS
330
C
102
}
330
C
100
AcDbDictionary
281
     1
  3
ASEBlockHierarchyIndexRecord
350
1A4E7
1001
DCO15
1040
1541019346.503
  0
DICTIONARY
  5
1401
102
{ACAD_REACTORS
330
C
102
}
330
C
100
AcDbDictionary
281
     1
  3
ACET.BREAKLINE-BLKEXE
350
1402
  0
DICTIONARY
  5
1AC5D
102
{ACAD_REACTORS
330
8D
102
}
330
8D
100
AcDbDictionary
281
     1
  0
DICTIONARY
  5
11EFF
102
{ACAD_REACTORS
330
8D
102
}
330
8D
100
AcDbDictionary
281
     1
  0
DICTIONARY
  5
1AC5C
102
{ACAD_REACTORS
330
8D
102
}
330
8D
100
AcDbDictionary
281
     1
1001
ACAD
1000
<All
  0
XRECORD
  5
1ADC8
102
{ACAD_REACTORS
330
1ADC7
102
}
330
1ADC7
100
AcDbXrecord
280
     1
290
     1
  0
XRECORD
  5
1ADCA
102
{ACAD_REACTORS
330
1ADC9
102
}
330
1ADC9
100
AcDbXrecord
280
     1
290
     1
  0
XRECORD
  5
1ADCC
102
{ACAD_REACTORS
330
1ADCB
102
}
330
1ADCB
100
AcDbXrecord
280
     1
290
     1
  0
XRECORD
  5
1ADCE
102
{ACAD_REACTORS
330
1ADCD
102
}
330
1ADCD
100
AcDbXrecord
280
     1
290
     1
  0
XRECORD
  5
1ADD0
102
{ACAD_REACTORS
330
1ADCF
102
}
330
1ADCF
100
AcDbXrecord
280
     1
290
     1
  0
XRECORD
  5
1ADD2
102
{ACAD_REACTORS
330
1ADD1
102
}
330
1ADD1
100
AcDbXrecord
280
     1
290
     1
  0
XRECORD
  5
1ADD4
102
{ACAD_REACTORS
330
1ADD3
102
}
330
1ADD3
100
AcDbXrecord
280
     1
290
     1
  0
XRECORD
  5
1ADD6
102
{ACAD_REACTORS
330
1ADD5
102
}
330
1ADD5
100
AcDbXrecord
280
     1
290
     1
  0
XRECORD
  5
1ADD8
102
{ACAD_REACTORS
330
1ADD7
102
}
330
1ADD7
100
AcDbXrecord
280
     1
290
     1
  0
XRECORD
  5
1ADDA
102
{ACAD_REACTORS
330
1ADD9
102
}
330
1ADD9
100
AcDbXrecord
280
     1
290
     1
  0
XRECORD
  5
1ADDC
102
{ACAD_REACTORS
330
1ADDB
102
}
330
1ADDB
100
AcDbXrecord
280
     1
290
     1
  0
XRECORD
  5
1ADDE
102
{ACAD_REACTORS
330
1ADDD
102
}
330
1ADDD
100
AcDbXrecord
280
     1
290
     1
  0
XRECORD
  5
1ADE0
102
{ACAD_REACTORS
330
1ADDF
102
}
330
1ADDF
100
AcDbXrecord
280
     1
290
     1
  0
XRECORD
  5
1ADE2
102
{ACAD_REACTORS
330
1ADE1
102
}
330
1ADE1
100
AcDbXrecord
280
     1
290
     1
  0
XRECORD
  5
1ADE4
102
{ACAD_REACTORS
330
1ADE3
102
}
330
1ADE3
100
AcDbXrecord
280
     1
290
     1
  0
XRECORD
  5
1ADE6
102
{ACAD_REACTORS
330
1ADE5
102
}
330
1ADE5
100
AcDbXrecord
280
     1
290
     1
  0
XRECORD
  5
1ADE8
102
{ACAD_REACTORS
330
1ADE7
102
}
330
1ADE7
100
AcDbXrecord
280
     1
290
     1
  0
XRECORD
  5
1ADEA
102
{ACAD_REACTORS
330
1ADE9
102
}
330
1ADE9
100
AcDbXrecord
280
     1
290
     1
  0
XRECORD
  5
1ADEC
102
{ACAD_REACTORS
330
1ADEB
102
}
330
1ADEB
100
AcDbXrecord
280
     1
290
     1
  0
SORTENTSTABLE
  5
39B
102
{ACAD_REACTORS
330
39A
102
}
330
39A
100
AcDbSortentsTable
330
1F
331
7B6A
  5
1C412
331
7B8A
  5
1C419
331
7B8C
  5
1C41A
331
7B96
  5
1C42D
331
7B97
  5
1C42E
331
7BA4
  5
1C42F
331
7BA5
  5
1C430
331
7BA7
  5
1C439
331
7BA9
  5
1C447
331
7BAB
  5
1C448
331
7BAC
  5
1C449
331
7BAD
  5
1C44A
331
7BAF
  5
1C44B
331
81F1
  5
1C413
331
81F2
  5
1C416
331
81F3
  5
1C417
331
81F4
  5
1C418
331
19A2B
  5
1C44C
331
1D67B
  5
1D67F
331
1D67D
  5
1D681
331
1D67E
  5
1D684
331
1D67F
  5
1D685
331
1D680
  5
1D688
331
1D681
  5
1D689
331
1D684
  5
1D68A
331
1D685
  5
1D68B
331
1D688
  5
1D68C
331
1D689
  5
1D68D
331
1D68A
  5
1D68E
331
1D68B
  5
1D68F
331
1D68C
  5
1D696
331
1D68D
  5
1D83D
331
1D68E
  5
1D864
331
1D68F
  5
1D8A0
331
1D706
  5
1D707
331
1D707
  5
1D708
331
1D708
  5
1D709
331
1D709
  5
1D70A
331
1D70A
  5
1D70B
331
1D70B
  5
1D70C
331
1D70C
  5
1D70D
331
1D70D
  5
1D70E
331
1D70E
  5
1D70F
331
1D70F
  5
1D710
331
1D710
  5
1D711
331
1D711
  5
1D712
331
1D712
  5
1D713
331
1D713
  5
1D714
331
1D714
  5
1D715
331
1D715
  5
1D716
331
1D716
  5
1D717
331
1D717
  5
1D718
331
1D718
  5
1D719
331
1D719
  5
1D71A
331
1D71A
  5
1D71B
331
1D71B
  5
1D71C
331
1D71C
  5
1D71D
331
1D71D
  5
1D71E
331
1D71E
  5
1D71F
331
1D71F
  5
1D720
331
1D720
  5
1D721
331
1D721
  5
1D722
331
1D722
  5
1D723
331
1D723
  5
1D724
331
1D724
  5
1D725
331
1D725
  5
1D726
331
1D726
  5
1D727
331
1D727
  5
1D728
331
1D728
  5
1D729
331
1D729
  5
1D72A
331
1D72A
  5
1D72B
331
1D72B
  5
1D72C
331
1D72C
  5
1D72D
331
1D72D
  5
1D72E
331
1D72E
  5
1D72F
331
1D72F
  5
1D730
331
1D730
  5
1D731
331
1D731
  5
1D732
331
1D732
  5
1D733
331
1D733
  5
1D734
331
1D734
  5
1D735
331
1D735
  5
1D736
331
1D736
  5
1D737
331
1D737
  5
1D738
331
1D738
  5
1D739
331
1D739
  5
1D73A
331
1D73A
  5
1D73B
331
1D73B
  5
1D73C
331
1D73C
  5
1D73D
331
1D73D
  5
1D73E
331
1D73E
  5
1D73F
331
1D73F
  5
1D740
331
1D740
  5
1D741
331
1D741
  5
1D742
331
1D742
  5
1D743
331
1D743
  5
1D744
331
1D744
  5
1D745
331
1D745
  5
1D746
331
1D746
  5
1D747
331
1D747
  5
1D748
331
1D748
  5
1D749
331
1D749
  5
1D74A
331
1D74A
  5
1D74B
331
1D74B
  5
1D74C
331
1D74C
  5
1D74D
331
1D74D
  5
1D74E
331
1D74E
  5
1D74F
331
1D74F
  5
1D750
331
1D750
  5
1D751
331
1D751
  5
1D752
331
1D752
  5
1D753
331
1D753
  5
1D754
331
1D754
  5
1D755
331
1D755
  5
1D756
331
1D756
  5
1D757
331
1D757
  5
1D758
331
1D758
  5
1D759
331
1D759
  5
1D75A
331
1D75A
  5
1D75B
331
1D75B
  5
1D75C
331
1D75C
  5
1D75D
331
1D75D
  5
1D75E
331
1D75E
  5
1D75F
331
1D75F
  5
1D760
331
1D760
  5
1D761
331
1D761
  5
1D762
331
1D762
  5
1D763
331
1D763
  5
1D764
331
1D764
  5
1D765
331
1D765
  5
1D766
331
1D766
  5
1D767
331
1D767
  5
1D768
331
1D768
  5
1D769
331
1D769
  5
1D76A
331
1D76A
  5
1D76C
331
1D76B
  5
1D76D
331
1D76C
  5
1D76E
331
1D76D
  5
1D76F
331
1D76E
  5
1D770
331
1D76F
  5
1D771
331
1D770
  5
1D772
331
1D771
  5
1D773
331
1D772
  5
1D774
331
1D773
  5
1D775
331
1D774
  5
1D776
331
1D775
  5
1D777
331
1D776
  5
1D778
331
1D777
  5
1D779
331
1D778
  5
1D77A
331
1D779
  5
1D77B
331
1D77A
  5
1D77C
331
1D77B
  5
1D77D
331
1D77C
  5
1D77E
331
1D77D
  5
1D77F
331
1D77E
  5
1D780
331
1D77F
  5
1D781
331
1D780
  5
1D782
331
1D781
  5
1D783
331
1D782
  5
1D784
331
1D783
  5
1D785
331
1D784
  5
1D786
331
1D785
  5
1D787
331
1D786
  5
1D788
331
1D787
  5
1D789
331
1D788
  5
1D78A
331
1D789
  5
1D78B
331
1D78A
  5
1D78C
331
1D78B
  5
1D78D
331
1D78C
  5
1D78E
331
1D78D
  5
1D78F
331
1D78E
  5
1D790
331
1D78F
  5
1D791
331
1D790
  5
1D792
331
1D791
  5
1D793
331
1D792
  5
1D794
331
1D793
  5
1D795
331
1D794
  5
1D796
331
1D795
  5
1D797
331
1D796
  5
1D798
331
1D797
  5
1D799
331
1D798
  5
1D79A
331
1D799
  5
1D79B
331
1D79A
  5
1D79C
331
1D79B
  5
1D79D
331
1D79C
  5
1D79E
331
1D79D
  5
1D79F
331
1D79E
  5
1D7A0
331
1D79F
  5
1D7A1
331
1D7A0
  5
1D7A2
331
1D7A1
  5
1D7A3
331
1D7A2
  5
1D7A4
331
1D7A3
  5
1D7A5
331
1D7A4
  5
1D7A6
331
1D7A5
  5
1D7A7
331
1D7A6
  5
1D7A8
331
1D7A7
  5
1D7A9
331
1D7A8
  5
1D7AA
331
1D7A9
  5
1D7AB
331
1D7AA
  5
1D7AC
331
1D7AB
  5
1D7AD
331
1D7AC
  5
1D7AE
331
1D7AD
  5
1D7AF
331
1D7AE
  5
1D7B0
331
1D7AF
  5
1D7B1
331
1D7B0
  5
1D7B2
331
1D7B1
  5
1D7B3
331
1D7B2
  5
1D7B4
331
1D7B3
  5
1D7B5
331
1D7B4
  5
1D7B6
331
1D7B5
  5
1D7B7
331
1D7B6
  5
1D7B8
331
1D7B7
  5
1D7B9
331
1D7B8
  5
1D7BA
331
1D7B9
  5
1D7BB
331
1D7BA
  5
1D7BC
331
1D7BB
  5
1D7BD
331
1D7BC
  5
1D7BE
331
1D7BD
  5
1D7BF
331
1D7BE
  5
1D7C0
331
1D7BF
  5
1D7C1
331
1D7C0
  5
1D7C2
331
1D7C1
  5
1D7C3
331
1D7C2
  5
1D7C4
331
1D7C3
  5
1D7C5
331
1D7C4
  5
1D7C6
331
1D7C5
  5
1D7C7
331
1D7C6
  5
1D7C8
331
1D7C7
  5
1D7C9
331
1D7C8
  5
1D7CA
331
1D7C9
  5
1D7CB
331
1D7CA
  5
1D7E6
331
1D7CB
  5
1D7E7
331
1D7E6
  5
1D82C
331
1D7E7
  5
1D82D
331
1D82C
  5
1D836
331
1D82D
  5
1D838
331
1D836
  5
1D8A1
331
1D838
  5
1C409
331
1D863
  5
1D680
331
1D895
  5
1D706
331
1D8A0
  5
1D8A2
331
1D8A1
  5
1D8A3
331
1D8A2
  5
1D8A4
331
1D8A3
  5
1DB37
331
1DB36
  5
1C42B
331
1DB63
  5
1D76B
331
1DB65
  5
1DB6A
331
1DB6A
  5
1DB65
  0
SORTENTSTABLE
  5
1BBBC
102
{ACAD_REACTORS
330
1BBBB
102
}
330
1BBBB
100
AcDbSortentsTable
330
1BA69
  0
SORTENTSTABLE
  5
1BBC3
102
{ACAD_REACTORS
330
1BBC2
102
}
330
1BBC2
100
AcDbSortentsTable
330
1BBBF
  0
XRECORD
  5
1DD03
102
{ACAD_REACTORS
330
1DC6C
102
}
330
1DC6C
100
AcDbXrecord
280
     1
 40
263030.0
  1
\pxsa1.5,t.1.5;{\fFrutiger 45 Light|b1|i0|c0|p0;\H1.25x;HSS COLUMN ON LOGIX}
  0
DIMASSOC
  5
1DB84
102
{ACAD_REACTORS
330
1DB83
102
}
330
1DB83
100
AcDbDimAssoc
330
1DB81
 90
        1
 70
     0
 71
     0
  1
AcDbOsnapPointRef
 72
     2
331
1D67E
 73
     2
 91
        0
 40
0.5
 10
0.0
 20
0.0
 30
0.0
 75
     0
  0
XRECORD
  5
1DD04
102
{ACAD_REACTORS
330
1DCBF
102
}
330
1DCBF
100
AcDbXrecord
280
     1
 40
49533.0
  1
\pxql;{\fArial|b0|i0|c0|p34;\H1.0833x;®}
  0
XRECORD
  5
1DD05
102
{ACAD_REACTORS
330
1DCC1
102
}
330
1DCC1
100
AcDbXrecord
280
     1
 40
238967.0
  1
\pxqc;{\C256;\c16777215;Build Anything \fCalibri|b1|i0|c0|p34;Better.}
  0
DICTIONARY
  5
1DCC2
102
{ACAD_REACTORS
330
1DCC1
102
}
330
1DCC1
100
AcDbDictionary
281
     1
  3
ACDB_ANNOTATIONSCALES
350
1DCC3
  0
ACDBDETAILVIEWSTYLE
  5
1DC7A
102
{ACAD_XDICTIONARY
360
1DD45
102
}
102
{ACAD_REACTORS
330
1DC79
102
}
330
1DC79
100
AcDbModelDocViewStyle
 70
     0
  3
Imperial24
290
     0
100
AcDbDetailViewStyle
 70
     0
 71
     0
 90
        3
 71
     1
340
11
 62
   256
 40
0.24
340
0
 62
   256
 40
0.24
300

 40
0.36
280
     3
 71
     2
340
16
 90
       25
 62
   256
 71
     3
340
11
 62
   256
 40
0.24
 90
        1
 40
0.75
 90
        1
300
%<\AcVar ViewType \f "%tc1">% %<\AcVar ViewDetailId>%\PSCALE %<\AcVar ViewScale \f "%sn">%
 71
     4
340
16
 90
       25
 62
   256
340
16
 90
       25
 62
   256
280
     0
  0
GROUP
  5
1DCD8
102
{ACAD_REACTORS
330
D
102
}
330
D
100
AcDbGroup
300

 70
     1
 71
     1
340
1DCC6
340
1DCC5
340
1DCC0
340
1DCBE
340
1DCBD
340
1DCBC
340
1DCBB
340
1DCBA
340
1DCB9
340
1DCB8
  0
LAYOUT
  5
59
102
{ACAD_XDICTIONARY
360
11F01
102
}
102
{ACAD_REACTORS
330
1A
102
}
330
1A
100
AcDbPlotSettings
  1

  2
none_device
  4
Letter_(8.50_x_11.00_Inches)
  6

 40
6.349999904632568
 41
6.349999904632568
 42
6.350006103515625
 43
6.350006103515625
 44
215.8999938964844
 45
279.3999938964844
 46
0.0
 47
0.0
 48
0.0
 49
0.0
140
0.0
141
0.0
142
1.0
143
1.0
 70
   688
 72
     0
 73
     1
 74
     5
  7
monochrome.ctb
 75
    16
147
1.0
 76
     0
 77
     2
 78
   300
148
0.0
149
0.0
100
AcDbLayout
  1
Layout1
 70
     1
 71
     1
 10
-0.2500002402958907
 20
-0.2499999962453767
 11
10.74999951940821
 21
8.249999763458731
 12
0.0
 22
0.0
 32
0.0
 14
1.049999952316284
 24
0.7999999523162842
 34
0.0
 15
9.449999570846555
 25
7.199999570846556
 35
0.0
146
0.0
 13
0.0
 23
0.0
 33
0.0
 16
1.0
 26
0.0
 36
0.0
 17
0.0
 27
1.0
 37
0.0
 76
     0
330
58
331
11EF8
1001
ACAD_PSEXT
1000
None
1000
None
1000
Not applicable
1000
The layout will not be plotted unless a new plotter configuration name is selected.
1070
     0
  0
LAYOUT
  5
5E
102
{ACAD_XDICTIONARY
360
11F0E
102
}
102
{ACAD_REACTORS
330
1A
102
}
330
1A
100
AcDbPlotSettings
  1

  2
none_device
  4
Letter_(8.50_x_11.00_Inches)
  6

 40
6.349999904632568
 41
6.349999904632568
 42
6.350006103515625
 43
6.350006103515625
 44
215.8999938964844
 45
279.3999938964844
 46
0.0
 47
0.0
 48
0.0
 49
0.0
140
0.0
141
0.0
142
1.0
143
1.0
 70
   688
 72
     0
 73
     1
 74
     5
  7
monochrome.ctb
 75
    16
147
1.0
 76
     0
 77
     2
 78
   300
148
0.0
149
0.0
100
AcDbLayout
  1
Layout2
 70
     1
 71
     2
 10
-0.2500002402958907
 20
-0.2499999962453767
 11
10.74999951940821
 21
8.249999763458731
 12
0.0
 22
0.0
 32
0.0
 14
1.049999952316284
 24
0.7999999523162842
 34
0.0
 15
9.449999570846555
 25
7.199999570846556
 35
0.0
146
0.0
 13
0.0
 23
0.0
 33
0.0
 16
1.0
 26
0.0
 36
0.0
 17
0.0
 27
1.0
 37
0.0
 76
     0
330
5D
331
11F07
1001
ACAD_PSEXT
1000
None
1000
None
1000
Not applicable
1000
The layout will not be plotted unless a new plotter configuration name is selected.
1070
     0
  0
LAYOUT
  5
22
102
{ACAD_XDICTIONARY
360
1DC50
102
}
102
{ACAD_REACTORS
330
1A
102
}
330
1A
100
AcDbPlotSettings
  1

  2
Adobe PDF
  4
Letter
  6

 40
3.174999952316284
 41
3.174999952316284
 42
3.175003051757812
 43
3.17498779296875
 44
215.8999938964844
 45
279.3999938964844
 46
0.0
 47
1.005285373717057
 48
42.79243385218257
 49
16.86126008649362
140
92.39555667468019
141
81.0197090886516
142
1.0
143
6.012499997379253
 70
  3764
 72
     0
 73
     0
 74
     4
  7
acad.ctb
 75
     0
147
0.1663201663926624
 76
     0
 77
     4
 78
   300
148
-1086.927819845437
149
-428.2760061969378
100
AcDbLayout
  1
Model
 70
     1
 71
     0
 10
0.0
 20
0.0
 11
12.0
 21
9.0
 12
0.0
 22
0.0
 32
0.0
 14
0.0
 24
0.0
 34
0.0
 15
0.0
 25
0.0
 35
0.0
146
0.0
 13
0.0
 23
0.0
 33
0.0
 16
1.0
 26
0.0
 36
0.0
 17
0.0
 27
1.0
 37
0.0
 76
     0
330
1F
331
1AD45
1001
ACAD_PSEXT
1000
Adobe PDF
1000
Adobe PDF Converter
1000
COM1:
1000

1070
     0
  0
MATERIAL
  5
1AD5C
102
{ACAD_XDICTIONARY
360
1AD5D
102
}
102
{ACAD_REACTORS
330
72
102
}
330
72
100
AcDbMaterial
  1
ByBlock
 72
     0
 43
0.0208333333333333
 43
0.0
 43
0.0
 43
0.0
 43
0.0
 43
0.0208333333333333
 43
0.0
 43
0.0
 43
0.0
 43
0.0
 43
1.0
 43
0.0
 43
0.0
 43
0.0
 43
0.0
 43
1.0
 77
     0
 47
0.0208333333333333
 47
0.0
 47
0.0
 47
0.0
 47
0.0
 47
0.0208333333333333
 47
0.0
 47
0.0
 47
0.0
 47
0.0
 47
1.0
 47
0.0
 47
0.0
 47
0.0
 47
0.0
 47
1.0
171
     0
 49
0.0208333333333333
 49
0.0
 49
0.0
 49
0.0
 49
0.0
 49
0.0208333333333333
 49
0.0
 49
0.0
 49
0.0
 49
0.0
 49
1.0
 49
0.0
 49
0.0
 49
0.0
 49
0.0
 49
1.0
175
     0
142
0.0208333333333333
142
0.0
142
0.0
142
0.0
142
0.0
142
0.0208333333333333
142
0.0
142
0.0
142
0.0
142
0.0
142
1.0
142
0.0
142
0.0
142
0.0
142
0.0
142
1.0
179
     0
144
0.0208333333333333
144
0.0
144
0.0
144
0.0
144
0.0
144
0.0208333333333333
144
0.0
144
0.0
144
0.0
144
0.0
144
1.0
144
0.0
144
0.0
144
0.0
144
0.0
144
1.0
147
0.0208333333333333
147
0.0
147
0.0
147
0.0
147
0.0
147
0.0208333333333333
147
0.0
147
0.0
147
0.0
147
0.0
147
1.0
147
0.0
147
0.0
147
0.0
147
0.0
147
1.0
  0
MATERIAL
  5
1AD54
102
{ACAD_XDICTIONARY
360
1AD55
102
}
102
{ACAD_REACTORS
330
72
102
}
330
72
100
AcDbMaterial
  1
ByLayer
 72
     0
 43
0.0208333333333333
 43
0.0
 43
0.0
 43
0.0
 43
0.0
 43
0.0208333333333333
 43
0.0
 43
0.0
 43
0.0
 43
0.0
 43
1.0
 43
0.0
 43
0.0
 43
0.0
 43
0.0
 43
1.0
 77
     0
 47
0.0208333333333333
 47
0.0
 47
0.0
 47
0.0
 47
0.0
 47
0.0208333333333333
 47
0.0
 47
0.0
 47
0.0
 47
0.0
 47
1.0
 47
0.0
 47
0.0
 47
0.0
 47
0.0
 47
1.0
171
     0
 49
0.0208333333333333
 49
0.0
 49
0.0
 49
0.0
 49
0.0
 49
0.0208333333333333
 49
0.0
 49
0.0
 49
0.0
 49
0.0
 49
1.0
 49
0.0
 49
0.0
 49
0.0
 49
0.0
 49
1.0
175
     0
142
0.0208333333333333
142
0.0
142
0.0
142
0.0
142
0.0
142
0.0208333333333333
142
0.0
142
0.0
142
0.0
142
0.0
142
1.0
142
0.0
142
0.0
142
0.0
142
0.0
142
1.0
179
     0
144
0.0208333333333333
144
0.0
144
0.0
144
0.0
144
0.0
144
0.0208333333333333
144
0.0
144
0.0
144
0.0
144
0.0
144
1.0
144
0.0
144
0.0
144
0.0
144
0.0
144
1.0
147
0.0208333333333333
147
0.0
147
0.0
147
0.0
147
0.0
147
0.0208333333333333
147
0.0
147
0.0
147
0.0
147
0.0
147
1.0
147
0.0
147
0.0
147
0.0
147
0.0
147
1.0
  0
MATERIAL
  5
1AD64
102
{ACAD_XDICTIONARY
360
1AD65
102
}
102
{ACAD_REACTORS
330
72
102
}
330
72
100
AcDbMaterial
  1
Global
 72
     0
 43
0.0208333333333333
 43
0.0
 43
0.0
 43
0.0
 43
0.0
 43
0.0208333333333333
 43
0.0
 43
0.0
 43
0.0
 43
0.0
 43
1.0
 43
0.0
 43
0.0
 43
0.0
 43
0.0
 43
1.0
 77
     0
 47
0.0208333333333333
 47
0.0
 47
0.0
 47
0.0
 47
0.0
 47
0.0208333333333333
 47
0.0
 47
0.0
 47
0.0
 47
0.0
 47
1.0
 47
0.0
 47
0.0
 47
0.0
 47
0.0
 47
1.0
171
     0
 49
0.0208333333333333
 49
0.0
 49
0.0
 49
0.0
 49
0.0
 49
0.0208333333333333
 49
0.0
 49
0.0
 49
0.0
 49
0.0
 49
1.0
 49
0.0
 49
0.0
 49
0.0
 49
0.0
 49
1.0
175
     0
142
0.0208333333333333
142
0.0
142
0.0
142
0.0
142
0.0
142
0.0208333333333333
142
0.0
142
0.0
142
0.0
142
0.0
142
1.0
142
0.0
142
0.0
142
0.0
142
0.0
142
1.0
179
     0
144
0.0208333333333333
144
0.0
144
0.0
144
0.0
144
0.0
144
0.0208333333333333
144
0.0
144
0.0
144
0.0
144
0.0
144
1.0
144
0.0
144
0.0
144
0.0
144
0.0
144
1.0
147
0.0208333333333333
147
0.0
147
0.0
147
0.0
147
0.0
147
0.0208333333333333
147
0.0
147
0.0
147
0.0
147
0.0
147
1.0
147
0.0
147
0.0
147
0.0
147
0.0
147
1.0
  0
MLEADERSTYLE
  5
1ADA0
102
{ACAD_REACTORS
330
1AD9F
102
}
330
1AD9F
100
AcDbMLeaderStyle
179
     2
170
     2
171
     1
172
     0
 90
        2
 40
0.0
 41
0.0
173
     1
 91
-1056964608
340
14
 92
       -2
290
     1
 42
0.09
291
     1
 43
0.36
  3
Standard
 44
0.18
300

342
11
174
     1
178
     6
175
     1
176
     0
 93
-1056964608
 45
0.18
292
     0
297
     0
 46
0.18
 94
-1056964608
 47
1.0
 49
1.0
140
1.0
293
     1
141
0.0
294
     1
177
     0
142
1.0
295
     0
296
     0
143
0.125
271
     0
272
     9
273
     9
  0
MLINESTYLE
  5
18
102
{ACAD_REACTORS
330
17
102
}
330
17
100
AcDbMlineStyle
  2
STANDARD
 70
     0
  3

 62
   256
 51
90.0
 52
90.0
 71
     2
 49
0.5
 62
   256
  6
BYLAYER
 49
-0.5
 62
   256
  6
BYLAYER
  0
ACDBPLACEHOLDER
  5
F
102
{ACAD_REACTORS
330
E
102
}
330
E
  0
SCALE
  5
1AD7E
102
{ACAD_REACTORS
330
1AD7D
102
}
330
1AD7D
100
AcDbScale
 70
     0
300
1:1
140
1.0
141
1.0
290
     1
  0
SCALE
  5
1AD7F
102
{ACAD_REACTORS
330
1AD7D
102
}
330
1AD7D
100
AcDbScale
 70
     0
300
1:2
140
1.0
141
2.0
290
     0
  0
SCALE
  5
1AD80
102
{ACAD_REACTORS
330
1AD7D
102
}
330
1AD7D
100
AcDbScale
 70
     0
300
1:4
140
1.0
141
4.0
290
     0
  0
SCALE
  5
1AD81
102
{ACAD_REACTORS
330
1AD7D
102
}
330
1AD7D
100
AcDbScale
 70
     0
300
1:5
140
1.0
141
5.0
290
     0
  0
SCALE
  5
1AD82
102
{ACAD_REACTORS
330
1AD7D
102
}
330
1AD7D
100
AcDbScale
 70
     0
300
1:8
140
1.0
141
8.0
290
     0
  0
SCALE
  5
1AD83
102
{ACAD_REACTORS
330
1AD7D
102
}
330
1AD7D
100
AcDbScale
 70
     0
300
1:10
140
1.0
141
10.0
290
     0
  0
SCALE
  5
1AD84
102
{ACAD_REACTORS
330
1AD7D
102
}
330
1AD7D
100
AcDbScale
 70
     0
300
1:16
140
1.0
141
16.0
290
     0
  0
SCALE
  5
1AD85
102
{ACAD_REACTORS
330
1AD7D
102
}
330
1AD7D
100
AcDbScale
 70
     0
300
1:20
140
1.0
141
20.0
290
     0
  0
SCALE
  5
1AD86
102
{ACAD_REACTORS
330
1AD7D
102
}
330
1AD7D
100
AcDbScale
 70
     0
300
1:30
140
1.0
141
30.0
290
     0
  0
SCALE
  5
1AD87
102
{ACAD_REACTORS
330
1AD7D
102
}
330
1AD7D
100
AcDbScale
 70
     0
300
1:40
140
1.0
141
40.0
290
     0
  0
SCALE
  5
1AD88
102
{ACAD_REACTORS
330
1AD7D
102
}
330
1AD7D
100
AcDbScale
 70
     0
300
1:50
140
1.0
141
50.0
290
     0
  0
SCALE
  5
1AD89
102
{ACAD_REACTORS
330
1AD7D
102
}
330
1AD7D
100
AcDbScale
 70
     0
300
1:100
140
1.0
141
100.0
290
     0
  0
SCALE
  5
1AD8A
102
{ACAD_REACTORS
330
1AD7D
102
}
330
1AD7D
100
AcDbScale
 70
     0
300
2:1
140
2.0
141
1.0
290
     0
  0
SCALE
  5
1AD8B
102
{ACAD_REACTORS
330
1AD7D
102
}
330
1AD7D
100
AcDbScale
 70
     0
300
4:1
140
4.0
141
1.0
290
     0
  0
SCALE
  5
1AD8C
102
{ACAD_REACTORS
330
1AD7D
102
}
330
1AD7D
100
AcDbScale
 70
     0
300
8:1
140
8.0
141
1.0
290
     0
  0
SCALE
  5
1AD8D
102
{ACAD_REACTORS
330
1AD7D
102
}
330
1AD7D
100
AcDbScale
 70
     0
300
10:1
140
10.0
141
1.0
290
     0
  0
SCALE
  5
1AD8E
102
{ACAD_REACTORS
330
1AD7D
102
}
330
1AD7D
100
AcDbScale
 70
     0
300
100:1
140
100.0
141
1.0
290
     0
  0
SCALE
  5
1AD8F
102
{ACAD_REACTORS
330
1AD7D
102
}
330
1AD7D
100
AcDbScale
 70
     0
300
1/128" = 1'-0"
140
0.0078125
141
12.0
290
     0
  0
SCALE
  5
1AD90
102
{ACAD_REACTORS
330
1AD7D
102
}
330
1AD7D
100
AcDbScale
 70
     0
300
1/64" = 1'-0"
140
0.015625
141
12.0
290
     0
  0
SCALE
  5
1AD91
102
{ACAD_REACTORS
330
1AD7D
102
}
330
1AD7D
100
AcDbScale
 70
     0
300
1/32" = 1'-0"
140
0.03125
141
12.0
290
     0
  0
SCALE
  5
1AD92
102
{ACAD_REACTORS
330
1AD7D
102
}
330
1AD7D
100
AcDbScale
 70
     0
300
1/16" = 1'-0"
140
0.0625
141
12.0
290
     0
  0
SCALE
  5
1AD93
102
{ACAD_REACTORS
330
1AD7D
102
}
330
1AD7D
100
AcDbScale
 70
     0
300
3/32" = 1'-0"
140
0.09375
141
12.0
290
     0
  0
SCALE
  5
1AD94
102
{ACAD_REACTORS
330
1AD7D
102
}
330
1AD7D
100
AcDbScale
 70
     0
300
1/8" = 1'-0"
140
0.125
141
12.0
290
     0
  0
SCALE
  5
1AD95
102
{ACAD_REACTORS
330
1AD7D
102
}
330
1AD7D
100
AcDbScale
 70
     0
300
3/16" = 1'-0"
140
0.1875
141
12.0
290
     0
  0
SCALE
  5
1AD96
102
{ACAD_REACTORS
330
1AD7D
102
}
330
1AD7D
100
AcDbScale
 70
     0
300
1/4" = 1'-0"
140
0.25
141
12.0
290
     0
  0
SCALE
  5
1AD97
102
{ACAD_REACTORS
330
1AD7D
102
}
330
1AD7D
100
AcDbScale
 70
     0
300
3/8" = 1'-0"
140
0.375
141
12.0
290
     0
  0
SCALE
  5
1AD98
102
{ACAD_REACTORS
330
1AD7D
102
}
330
1AD7D
100
AcDbScale
 70
     0
300
1/2" = 1'-0"
140
0.5
141
12.0
290
     0
  0
SCALE
  5
1AD99
102
{ACAD_REACTORS
330
1AD7D
102
}
330
1AD7D
100
AcDbScale
 70
     0
300
3/4" = 1'-0"
140
0.75
141
12.0
290
     0
  0
SCALE
  5
1AD9A
102
{ACAD_REACTORS
330
1AD7D
102
}
330
1AD7D
100
AcDbScale
 70
     0
300
1" = 1'-0"
140
1.0
141
12.0
290
     0
  0
SCALE
  5
1AD9B
102
{ACAD_REACTORS
330
1AD7D
102
}
330
1AD7D
100
AcDbScale
 70
     0
300
1-1/2" = 1'-0"
140
1.5
141
12.0
290
     0
  0
SCALE
  5
1AD9C
102
{ACAD_REACTORS
330
1AD7D
102
}
330
1AD7D
100
AcDbScale
 70
     0
300
3" = 1'-0"
140
3.0
141
12.0
290
     0
  0
SCALE
  5
1AD9D
102
{ACAD_REACTORS
330
1AD7D
102
}
330
1AD7D
100
AcDbScale
 70
     0
300
6" = 1'-0"
140
6.0
141
12.0
290
     0
  0
SCALE
  5
1AD9E
102
{ACAD_REACTORS
330
1AD7D
102
}
330
1AD7D
100
AcDbScale
 70
     0
300
1'-0" = 1'-0"
140
12.0
141
12.0
290
     0
  0
ACDBSECTIONVIEWSTYLE
  5
1DC78
102
{ACAD_XDICTIONARY
360
1DD43
102
}
102
{ACAD_REACTORS
330
1DC77
102
}
330
1DC77
100
AcDbModelDocViewStyle
 70
     0
  3
Imperial24
290
     0
100
AcDbSectionViewStyle
 70
     0
 71
     0
 90
       78
 71
     1
340
11
 62
   256
 40
0.24
340
0
340
0
 62
   256
 40
0.24
300
I, O, Q, S, X, Z
 40
0.48
 90
        3
 40
0.18
 90
        1
 71
     2
340
16
 90
       25
 62
   256
340
16
 90
       50
 62
   256
 40
0.24
 40
0.0
 40
0.24
 71
     3
340
11
 62
   256
 40
0.24
 90
        1
 40
0.75
 90
        1
300
%<\AcVar ViewType \f "%tc1">% %<\AcVar ViewSectionStartId>%-%<\AcVar ViewSectionEndId>%\PSCALE %<\AcVar ViewScale \f "%sn">%
 71
     4
 62
   256
 62
   257
300
ANSI31
 40
1.0
 90
        0
290
     0
290
     0
 90
        6
 40
0.0
 40
1.570796326794896
 40
0.2617993877991494
 40
1.308996938995747
 40
-0.2617993877991494
 40
1.832595714594046
  0
TABLESTYLE
  5
37C9
102
{ACAD_XDICTIONARY
360
1ADF1
102
}
102
{ACAD_REACTORS
330
86
102
}
330
86
100
AcDbTableStyle
280
     0
  3
Standard
 70
     0
 71
     0
 40
0.06
 41
0.06
280
     0
281
     0
  7
Arial
140
0.18
170
     2
 62
     0
 63
     7
283
     0
 90
        4
 91
        0
  1

274
    -2
284
     1
 64
     0
275
    -2
285
     1
 65
     0
276
    -2
286
     1
 66
     0
277
    -2
287
     1
 67
     0
278
    -2
288
     1
 68
     0
279
    -2
289
     1
 69
     0
  7
Arial
140
0.25
170
     5
 62
     1
 63
     7
283
     0
 90
        4
 91
        0
  1

274
    -2
284
     1
 64
     0
275
    -2
285
     1
 65
     0
276
    -2
286
     1
 66
     0
277
    -2
287
     1
 67
     0
278
    -2
288
     1
 68
     0
279
    -2
289
     1
 69
     0
  7
Arial
140
0.18
170
     5
 62
     5
 63
     9
283
     1
 90
        4
 91
        0
  1

274
    -2
284
     1
 64
     0
275
    -2
285
     1
 65
     0
276
    -2
286
     1
 66
     0
277
    -2
287
     1
 67
     0
278
    -2
288
     1
 68
     0
279
    -2
289
     1
 69
     0
  0
TABLESTYLE
  5
36AB
102
{ACAD_XDICTIONARY
360
1ADEF
102
}
102
{ACAD_REACTORS
330
86
102
}
330
86
100
AcDbTableStyle
280
     0
  3
Standard
 70
     0
 71
     0
 40
1.5
 41
1.5
280
     0
281
     0
  7
Arial
140
4.5
170
     2
 62
     0
 63
     7
283
     0
 90
        4
 91
        0
  1

274
    -2
284
     1
 64
     0
275
    -2
285
     1
 65
     0
276
    -2
286
     1
 66
     0
277
    -2
287
     1
 67
     0
278
    -2
288
     1
 68
     0
279
    -2
289
     1
 69
     0
  7
Arial
140
6.0
170
     5
 62
     1
 63
   254
421
 14079702
283
     1
 90
        4
 91
        0
  1

274
    -2
284
     1
 64
     0
275
    -2
285
     1
 65
     0
276
    -2
286
     1
 66
     0
277
    -2
287
     1
 67
     0
278
    -2
288
     1
 68
     0
279
    -2
289
     1
 69
     0
  7
Arial
140
4.5
170
     5
 62
     5
 63
     7
283
     0
 90
        4
 91
        0
  1

274
    -2
284
     1
 64
     0
275
    -2
285
     1
 65
     0
276
    -2
286
     1
 66
     0
277
    -2
287
     1
 67
     0
278
    -2
288
     1
 68
     0
279
    -2
289
     1
 69
     0
  0
TABLESTYLE
  5
87
102
{ACAD_XDICTIONARY
360
1ADED
102
}
102
{ACAD_REACTORS
330
86
102
}
330
86
100
AcDbTableStyle
280
     0
  3
Standard
 70
     0
 71
     0
 40
0.06
 41
0.06
280
     0
281
     0
  7
Standard
140
0.18
170
     2
 62
     0
 63
     7
283
     0
 90
        4
 91
        0
  1

274
    -2
284
     1
 64
     0
275
    -2
285
     1
 65
     0
276
    -2
286
     1
 66
     0
277
    -2
287
     1
 67
     0
278
    -2
288
     1
 68
     0
279
    -2
289
     1
 69
     0
  7
Standard
140
0.25
170
     5
 62
     0
 63
     7
283
     0
 90
        4
 91
        0
  1

274
    -2
284
     1
 64
     0
275
    -2
285
     1
 65
     0
276
    -2
286
     1
 66
     0
277
    -2
287
     1
 67
     0
278
    -2
288
     1
 68
     0
279
    -2
289
     1
 69
     0
  7
Standard
140
0.18
170
     5
 62
     0
 63
     7
283
     0
 90
        4
 91
        0
  1

274
    -2
284
     1
 64
     0
275
    -2
285
     1
 65
     0
276
    -2
286
     1
 66
     0
277
    -2
287
     1
 67
     0
278
    -2
288
     1
 68
     0
279
    -2
289
     1
 69
     0
  0
VISUALSTYLE
  5
1AD72
102
{ACAD_XDICTIONARY
360
1DD19
102
}
102
{ACAD_REACTORS
330
1AD6C
102
}
330
1AD6C
100
AcDbVisualStyle
  2
2dWireframe
 70
     4
177
     2
291
     0
 71
     0
176
     1
 72
     2
176
     1
 73
     0
176
     1
 90
        0
176
     1
 40
0.6
176
     1
 41
30.0
176
     1
 63
     7
176
     1
 74
     1
176
     1
 91
        4
176
     1
 64
     7
176
     1
 65
   257
176
     1
 75
     1
176
     1
175
     1
176
     1
 42
1.0
176
     1
 92
        0
176
     1
 66
   257
176
     1
 43
1.0
176
     1
 76
     1
176
     1
 77
     6
176
     1
 78
     2
176
     1
 67
     7
176
     1
 79
     5
176
     1
170
     0
176
     1
171
     0
176
     1
290
     0
176
     1
 93
        1
176
     1
 44
0.0
176
     1
173
     0
176
     1
1001
ACAD
1000
AcDbSavedByObjectVersion
1070
     0
  0
VISUALSTYLE
  5
1AD74
102
{ACAD_XDICTIONARY
360
1DD1D
102
}
102
{ACAD_REACTORS
330
1AD6C
102
}
330
1AD6C
100
AcDbVisualStyle
  2
3D Hidden
 70
     6
177
     2
291
     0
 71
     1
176
     1
 72
     2
176
     1
 73
     2
176
     1
 90
        0
176
     1
 40
0.6
176
     1
 41
30.0
176
     1
 63
     7
176
     1
 74
     2
176
     1
 91
        2
176
     1
 64
     7
176
     1
 65
   257
176
     1
 75
     2
176
     1
175
     1
176
     1
 42
40.0
176
     1
 92
        0
176
     1
 66
   257
176
     1
 43
1.0
176
     1
 76
     1
176
     1
 77
     6
176
     1
 78
     2
176
     1
 67
     7
176
     1
 79
     3
176
     1
170
     0
176
     1
171
     0
176
     1
290
     0
176
     1
 93
        1
176
     1
 44
0.0
176
     1
173
     0
176
     1
1001
ACAD
1000
AcDbSavedByObjectVersion
1070
     0
  0
VISUALSTYLE
  5
1AD73
102
{ACAD_XDICTIONARY
360
1DD1B
102
}
102
{ACAD_REACTORS
330
1AD6C
102
}
330
1AD6C
100
AcDbVisualStyle
  2
3dWireframe
 70
     5
177
     2
291
     0
 71
     0
176
     1
 72
     2
176
     1
 73
     0
176
     1
 90
        0
176
     1
 40
0.6
176
     1
 41
30.0
176
     1
 63
     7
176
     1
 74
     1
176
     1
 91
        4
176
     1
 64
     7
176
     1
 65
   257
176
     1
 75
     1
176
     1
175
     1
176
     1
 42
1.0
176
     1
 92
        0
176
     1
 66
   257
176
     1
 43
1.0
176
     1
 76
     1
176
     1
 77
     6
176
     1
 78
     2
176
     1
 67
     7
176
     1
 79
     5
176
     1
170
     0
176
     1
171
     0
176
     1
290
     0
176
     1
 93
        1
176
     1
 44
0.0
176
     1
173
     0
176
     1
1001
ACAD
1000
AcDbSavedByObjectVersion
1070
     0
  0
VISUALSTYLE
  5
1AD71
102
{ACAD_XDICTIONARY
360
1DD17
102
}
102
{ACAD_REACTORS
330
1AD6C
102
}
330
1AD6C
100
AcDbVisualStyle
  2
Basic
 70
     7
177
     2
291
     1
 71
     1
176
     1
 72
     0
176
     1
 73
     1
176
     1
 90
        0
176
     1
 40
0.6
176
     1
 41
30.0
176
     1
 63
     7
176
     1
 74
     0
176
     1
 91
        4
176
     1
 64
     7
176
     1
 65
   257
176
     1
 75
     1
176
     1
175
     1
176
     1
 42
1.0
176
     1
 92
        8
176
     1
 66
     7
176
     1
 43
1.0
176
     1
 76
     1
176
     1
 77
     6
176
     1
 78
     2
176
     1
 67
     7
176
     1
 79
     5
176
     1
170
     0
176
     1
171
     0
176
     1
290
     0
176
     1
 93
        1
176
     1
 44
0.0
176
     1
173
     0
176
     1
1001
ACAD
1000
AcDbSavedByObjectVersion
1070
     0
  0
VISUALSTYLE
  5
1AD78
102
{ACAD_XDICTIONARY
360
1DD25
102
}
102
{ACAD_REACTORS
330
1AD6C
102
}
330
1AD6C
100
AcDbVisualStyle
  2
Brighten
 70
    12
177
     2
291
     1
 71
     2
176
     1
 72
     2
176
     1
 73
     0
176
     1
 90
        0
176
     1
 40
0.6
176
     1
 41
30.0
176
     1
 63
     7
176
     1
 74
     1
176
     1
 91
        4
176
     1
 64
     7
176
     1
 65
   257
176
     1
 75
     1
176
     1
175
     1
176
     1
 42
1.0
176
     1
 92
        8
176
     1
 66
     7
176
     1
 43
1.0
176
     1
 76
     1
176
     1
 77
     6
176
     1
 78
     2
176
     1
 67
     7
176
     1
 79
     5
176
     1
170
     0
176
     1
171
     0
176
     1
290
     0
176
     1
 93
        1
176
     1
 44
50.0
176
     1
173
     0
176
     1
1001
ACAD
1000
AcDbSavedByObjectVersion
1070
     0
  0
VISUALSTYLE
  5
1AD7C
102
{ACAD_XDICTIONARY
360
1DD2D
102
}
102
{ACAD_REACTORS
330
1AD6C
102
}
330
1AD6C
100
AcDbVisualStyle
  2
ColorChange
 70
    16
177
     2
291
     1
 71
     2
176
     1
 72
     2
176
     1
 73
     3
176
     1
 90
        0
176
     1
 40
0.6
176
     1
 41
30.0
176
     1
 63
     8
176
     1
 74
     1
176
     1
 91
        4
176
     1
 64
     7
176
     1
 65
   257
176
     1
 75
     1
176
     1
175
     1
176
     1
 42
1.0
176
     1
 92
        8
176
     1
 66
     8
176
     1
 43
1.0
176
     1
 76
     1
176
     1
 77
     6
176
     1
 78
     2
176
     1
 67
     7
176
     1
 79
     5
176
     1
170
     0
176
     1
171
     0
176
     1
290
     0
176
     1
 93
        1
176
     1
 44
0.0
176
     1
173
     0
176
     1
1001
ACAD
1000
AcDbSavedByObjectVersion
1070
     0
  0
VISUALSTYLE
  5
1AD75
102
{ACAD_XDICTIONARY
360
1DD1F
102
}
102
{ACAD_REACTORS
330
1AD6C
102
}
330
1AD6C
100
AcDbVisualStyle
  2
Conceptual
 70
     9
177
     2
291
     0
 71
     3
176
     1
 72
     2
176
     1
 73
     0
176
     1
 90
        0
176
     1
 40
0.6
176
     1
 41
30.0
176
     1
 63
     7
176
     1
 74
     2
176
     1
 91
        2
176
     1
 64
     7
176
     1
 65
   257
176
     1
 75
     1
176
     1
175
     1
176
     1
 42
40.0
176
     1
 92
        8
176
     1
 66
     7
176
     1
 43
1.0
176
     1
 76
     1
176
     1
 77
     6
176
     1
 78
     2
176
     1
 67
     7
176
     1
 79
     3
176
     1
170
     0
176
     1
171
     0
176
     1
290
     0
176
     1
 93
        1
176
     1
 44
0.0
176
     1
173
     0
176
     1
1001
ACAD
1000
AcDbSavedByObjectVersion
1070
     0
  0
VISUALSTYLE
  5
1AD77
102
{ACAD_XDICTIONARY
360
1DD23
102
}
102
{ACAD_REACTORS
330
1AD6C
102
}
330
1AD6C
100
AcDbVisualStyle
  2
Dim
 70
    11
177
     2
291
     1
 71
     2
176
     1
 72
     2
176
     1
 73
     0
176
     1
 90
        0
176
     1
 40
0.6
176
     1
 41
30.0
176
     1
 63
     7
176
     1
 74
     1
176
     1
 91
        4
176
     1
 64
     7
176
     1
 65
   257
176
     1
 75
     1
176
     1
175
     1
176
     1
 42
1.0
176
     1
 92
        8
176
     1
 66
     7
176
     1
 43
1.0
176
     1
 76
     1
176
     1
 77
     6
176
     1
 78
     2
176
     1
 67
     7
176
     1
 79
     5
176
     1
170
     0
176
     1
171
     0
176
     1
290
     0
176
     1
 93
        1
176
     1
 44
-50.0
176
     1
173
     0
176
     1
1001
ACAD
1000
AcDbSavedByObjectVersion
1070
     0
  0
VISUALSTYLE
  5
1DC3A
102
{ACAD_XDICTIONARY
360
1DD33
102
}
102
{ACAD_REACTORS
330
1AD6C
102
}
330
1AD6C
100
AcDbVisualStyle
  2
EdgeColorOff
 70
    22
177
     2
291
     1
 71
     2
176
     0
 72
     2
176
     0
 73
     0
176
     0
 90
        0
176
     0
 40
0.6
176
     0
 41
30.0
176
     0
 63
     7
421
 16777215
176
     0
 74
     1
176
     0
 91
        4
176
     0
 64
     7
176
     0
 65
   257
176
     0
 75
     1
176
     0
175
     1
176
     0
 42
1.0
176
     0
 92
        8
176
     2
 66
     7
176
     0
 43
1.0
176
     0
 76
     1
176
     0
 77
     6
176
     0
 78
     2
176
     0
 67
     7
176
     0
 79
     5
176
     0
170
     0
176
     0
171
     0
176
     0
290
     0
176
     0
 93
        1
176
     0
 44
0.0
176
     0
173
     0
176
     0
1001
ACAD
1000
AcDbSavedByObjectVersion
1070
     0
  0
VISUALSTYLE
  5
1AD7B
102
{ACAD_XDICTIONARY
360
1DD2B
102
}
102
{ACAD_REACTORS
330
1AD6C
102
}
330
1AD6C
100
AcDbVisualStyle
  2
Facepattern
 70
    15
177
     2
291
     1
 71
     2
176
     1
 72
     2
176
     1
 73
     0
176
     1
 90
        0
176
     1
 40
0.6
176
     1
 41
30.0
176
     1
 63
     7
176
     1
 74
     1
176
     1
 91
        4
176
     1
 64
     7
176
     1
 65
   257
176
     1
 75
     1
176
     1
175
     1
176
     1
 42
1.0
176
     1
 92
        8
176
     1
 66
     7
176
     1
 43
1.0
176
     1
 76
     1
176
     1
 77
     6
176
     1
 78
     2
176
     1
 67
     7
176
     1
 79
     5
176
     1
170
     0
176
     1
171
     0
176
     1
290
     0
176
     1
 93
        1
176
     1
 44
0.0
176
     1
173
     0
176
     1
1001
ACAD
1000
AcDbSavedByObjectVersion
1070
     0
  0
VISUALSTYLE
  5
1AD6D
102
{ACAD_XDICTIONARY
360
1DD0F
102
}
102
{ACAD_REACTORS
330
1AD6C
102
}
330
1AD6C
100
AcDbVisualStyle
  2
Flat
 70
     0
177
     2
291
     1
 71
     2
176
     1
 72
     1
176
     1
 73
     1
176
     1
 90
        2
176
     1
 40
0.6
176
     1
 41
30.0
176
     1
 63
     7
176
     1
 74
     0
176
     1
 91
        4
176
     1
 64
     7
176
     1
 65
   257
176
     1
 75
     1
176
     1
175
     1
176
     1
 42
1.0
176
     1
 92
        8
176
     1
 66
     7
176
     1
 43
1.0
176
     1
 76
     1
176
     1
 77
     6
176
     1
 78
     2
176
     1
 67
     7
176
     1
 79
     5
176
     1
170
     0
176
     1
171
     0
176
     1
290
     0
176
     1
 93
       13
176
     1
 44
0.0
176
     1
173
     0
176
     1
1001
ACAD
1000
AcDbSavedByObjectVersion
1070
     0
  0
VISUALSTYLE
  5
1AD6E
102
{ACAD_XDICTIONARY
360
1DD11
102
}
102
{ACAD_REACTORS
330
1AD6C
102
}
330
1AD6C
100
AcDbVisualStyle
  2
FlatWithEdges
 70
     1
177
     2
291
     1
 71
     2
176
     1
 72
     1
176
     1
 73
     1
176
     1
 90
        2
176
     1
 40
0.6
176
     1
 41
30.0
176
     1
 63
     7
176
     1
 74
     1
176
     1
 91
        4
176
     1
 64
     7
176
     1
 65
   257
176
     1
 75
     1
176
     1
175
     1
176
     1
 42
1.0
176
     1
 92
        0
176
     1
 66
   257
176
     1
 43
1.0
176
     1
 76
     1
176
     1
 77
     6
176
     1
 78
     2
176
     1
 67
     7
176
     1
 79
     5
176
     1
170
     0
176
     1
171
     0
176
     1
290
     0
176
     1
 93
       13
176
     1
 44
0.0
176
     1
173
     0
176
     1
1001
ACAD
1000
AcDbSavedByObjectVersion
1070
     0
  0
VISUALSTYLE
  5
1AD6F
102
{ACAD_XDICTIONARY
360
1DD13
102
}
102
{ACAD_REACTORS
330
1AD6C
102
}
330
1AD6C
100
AcDbVisualStyle
  2
Gouraud
 70
     2
177
     2
291
     1
 71
     2
176
     1
 72
     2
176
     1
 73
     1
176
     1
 90
        2
176
     1
 40
0.6
176
     1
 41
30.0
176
     1
 63
     7
176
     1
 74
     0
176
     1
 91
        4
176
     1
 64
     7
176
     1
 65
   257
176
     1
 75
     1
176
     1
175
     1
176
     1
 42
1.0
176
     1
 92
        0
176
     1
 66
     7
176
     1
 43
1.0
176
     1
 76
     1
176
     1
 77
     6
176
     1
 78
     2
176
     1
 67
     7
176
     1
 79
     5
176
     1
170
     0
176
     1
171
     0
176
     1
290
     0
176
     1
 93
       13
176
     1
 44
0.0
176
     1
173
     0
176
     1
1001
ACAD
1000
AcDbSavedByObjectVersion
1070
     0
  0
VISUALSTYLE
  5
1AD70
102
{ACAD_XDICTIONARY
360
1DD15
102
}
102
{ACAD_REACTORS
330
1AD6C
102
}
330
1AD6C
100
AcDbVisualStyle
  2
GouraudWithEdges
 70
     3
177
     2
291
     1
 71
     2
176
     1
 72
     2
176
     1
 73
     1
176
     1
 90
        2
176
     1
 40
0.6
176
     1
 41
30.0
176
     1
 63
     7
176
     1
 74
     1
176
     1
 91
        4
176
     1
 64
     7
176
     1
 65
   257
176
     1
 75
     1
176
     1
175
     1
176
     1
 42
1.0
176
     1
 92
        0
176
     1
 66
   257
176
     1
 43
1.0
176
     1
 76
     1
176
     1
 77
     6
176
     1
 78
     2
176
     1
 67
     7
176
     1
 79
     5
176
     1
170
     0
176
     1
171
     0
176
     1
290
     0
176
     1
 93
       13
176
     1
 44
0.0
176
     1
173
     0
176
     1
1001
ACAD
1000
AcDbSavedByObjectVersion
1070
     0
  0
VISUALSTYLE
  5
1DC71
102
{ACAD_XDICTIONARY
360
1DD37
102
}
102
{ACAD_REACTORS
330
1AD6C
102
}
330
1AD6C
100
AcDbVisualStyle
  2
Hidden
 70
     6
177
     2
291
     0
 71
     1
176
     1
 72
     2
176
     1
 73
     2
176
     1
 90
        0
176
     1
 40
0.6
176
     1
 41
30.0
176
     1
 63
     7
421
 16777215
176
     1
 74
     2
176
     1
 91
        2
176
     1
 64
     7
176
     1
 65
   257
176
     1
 75
     2
176
     1
175
     1
176
     1
 42
40.0
176
     1
 92
        0
176
     1
 66
   257
176
     1
 43
1.0
176
     1
 76
     1
176
     1
 77
     6
176
     1
 78
     2
176
     1
 67
     7
176
     1
 79
     3
176
     1
170
     0
176
     1
171
     0
176
     1
290
     0
176
     1
 93
        1
176
     1
 44
0.0
176
     1
173
     0
176
     1
1001
ACAD
1000
AcDbSavedByObjectVersion
1070
     0
  0
VISUALSTYLE
  5
1DC38
102
{ACAD_XDICTIONARY
360
1DD2F
102
}
102
{ACAD_REACTORS
330
1AD6C
102
}
330
1AD6C
100
AcDbVisualStyle
  2
JitterOff
 70
    20
177
     2
291
     1
 71
     2
176
     0
 72
     2
176
     0
 73
     0
176
     0
 90
        0
176
     0
 40
0.6
176
     0
 41
30.0
176
     0
 63
     7
421
 16777215
176
     0
 74
     1
176
     0
 91
        4
176
     0
 64
     7
176
     0
 65
   257
176
     0
 75
     1
176
     0
175
     1
176
     0
 42
1.0
176
     0
 92
       10
176
     2
 66
     7
176
     0
 43
1.0
176
     0
 76
     1
176
     0
 77
     6
176
     0
 78
     2
176
     0
 67
     7
176
     0
 79
     5
176
     0
170
     0
176
     0
171
     0
176
     0
290
     0
176
     0
 93
        1
176
     0
 44
0.0
176
     0
173
     0
176
     0
1001
ACAD
1000
AcDbSavedByObjectVersion
1070
     0
  0
VISUALSTYLE
  5
1AD7A
102
{ACAD_XDICTIONARY
360
1DD29
102
}
102
{ACAD_REACTORS
330
1AD6C
102
}
330
1AD6C
100
AcDbVisualStyle
  2
Linepattern
 70
    14
177
     2
291
     1
 71
     2
176
     1
 72
     2
176
     1
 73
     0
176
     1
 90
        0
176
     1
 40
0.6
176
     1
 41
30.0
176
     1
 63
     7
176
     1
 74
     1
176
     1
 91
        4
176
     1
 64
     7
176
     1
 65
   257
176
     1
 75
     7
176
     1
175
     7
176
     1
 42
1.0
176
     1
 92
        8
176
     1
 66
     7
176
     1
 43
1.0
176
     1
 76
     1
176
     1
 77
     6
176
     1
 78
     2
176
     1
 67
     7
176
     1
 79
     5
176
     1
170
     0
176
     1
171
     0
176
     1
290
     0
176
     1
 93
        1
176
     1
 44
0.0
176
     1
173
     0
176
     1
1001
ACAD
1000
AcDbSavedByObjectVersion
1070
     0
  0
VISUALSTYLE
  5
1DC39
102
{ACAD_XDICTIONARY
360
1DD31
102
}
102
{ACAD_REACTORS
330
1AD6C
102
}
330
1AD6C
100
AcDbVisualStyle
  2
OverhangOff
 70
    21
177
     2
291
     1
 71
     2
176
     0
 72
     2
176
     0
 73
     0
176
     0
 90
        0
176
     0
 40
0.6
176
     0
 41
30.0
176
     0
 63
     7
421
 16777215
176
     0
 74
     1
176
     0
 91
        4
176
     0
 64
     7
176
     0
 65
   257
176
     0
 75
     1
176
     0
175
     1
176
     0
 42
1.0
176
     0
 92
        9
176
     2
 66
     7
176
     0
 43
1.0
176
     0
 76
     1
176
     0
 77
     6
176
     0
 78
     2
176
     0
 67
     7
176
     0
 79
     5
176
     0
170
     0
176
     0
171
     0
176
     0
290
     0
176
     0
 93
        1
176
     0
 44
0.0
176
     0
173
     0
176
     0
1001
ACAD
1000
AcDbSavedByObjectVersion
1070
     0
  0
VISUALSTYLE
  5
1AD76
102
{ACAD_XDICTIONARY
360
1DD21
102
}
102
{ACAD_REACTORS
330
1AD6C
102
}
330
1AD6C
100
AcDbVisualStyle
  2
Realistic
 70
     8
177
     2
291
     0
 71
     2
176
     1
 72
     2
176
     1
 73
     0
176
     1
 90
        0
176
     1
 40
0.6
176
     1
 41
30.0
176
     1
 63
     7
176
     1
 74
     1
176
     1
 91
        0
176
     1
 64
     7
176
     1
 65
   257
176
     1
 75
     1
176
     1
175
     1
176
     1
 42
1.0
176
     1
 92
        8
176
     1
 66
     8
176
     1
 43
1.0
176
     1
 76
     1
176
     1
 77
     6
176
     1
 78
     2
176
     1
 67
     7
176
     1
 79
     5
176
     1
170
     0
176
     1
171
     0
176
     1
290
     0
176
     1
 93
       13
176
     1
 44
0.0
176
     1
173
     0
176
     1
1001
ACAD
1000
AcDbSavedByObjectVersion
1070
     0
  0
VISUALSTYLE
  5
1DC76
102
{ACAD_XDICTIONARY
360
1DD41
102
}
102
{ACAD_REACTORS
330
1AD6C
102
}
330
1AD6C
100
AcDbVisualStyle
  2
Shaded
 70
    27
177
     2
291
     0
 71
     2
176
     1
 72
     2
176
     1
 73
     1
176
     1
 90
        2
176
     1
 40
0.6
176
     1
 41
30.0
176
     1
 63
     7
421
 16777215
176
     1
 74
     0
176
     1
 91
        4
176
     1
 64
     7
176
     1
 65
   257
176
     1
 75
     1
176
     1
175
     1
176
     1
 42
1.0
176
     1
 92
        8
176
     1
 66
   257
176
     1
 43
1.0
176
     1
 76
     1
176
     1
 77
     6
176
     1
 78
     2
176
     1
 67
     8
425
  7895160
176
     1
 79
     3
176
     1
170
     0
176
     1
171
     0
176
     1
290
     0
176
     1
 93
        5
176
     1
 44
0.0
176
     1
173
     0
176
     1
1001
ACAD
1000
AcDbSavedByObjectVersion
1070
     0
  0
VISUALSTYLE
  5
1DC75
102
{ACAD_XDICTIONARY
360
1DD3F
102
}
102
{ACAD_REACTORS
330
1AD6C
102
}
330
1AD6C
100
AcDbVisualStyle
  2
Shaded with edges
 70
    26
177
     2
291
     0
 71
     2
176
     1
 72
     2
176
     1
 73
     1
176
     1
 90
        2
176
     1
 40
0.6
176
     1
 41
30.0
176
     1
 63
     7
421
 16777215
176
     1
 74
     1
176
     1
 91
        2
176
     1
 64
     7
176
     1
 65
   257
176
     1
 75
     2
176
     1
175
     1
176
     1
 42
1.0
176
     1
 92
        8
176
     1
 66
   257
176
     1
 43
1.0
176
     1
 76
     1
176
     1
 77
     6
176
     1
 78
     2
176
     1
 67
     7
176
     1
 79
     3
176
     1
170
     0
176
     1
171
     0
176
     1
290
     0
176
     1
 93
        5
176
     1
 44
0.0
176
     1
173
     0
176
     1
1001
ACAD
1000
AcDbSavedByObjectVersion
1070
     0
  0
VISUALSTYLE
  5
1DC72
102
{ACAD_XDICTIONARY
360
1DD39
102
}
102
{ACAD_REACTORS
330
1AD6C
102
}
330
1AD6C
100
AcDbVisualStyle
  2
Shades of Gray
 70
    23
177
     2
291
     0
 71
     2
176
     1
 72
     2
176
     1
 73
     3
176
     1
 90
        0
176
     1
 40
0.6
176
     1
 41
30.0
176
     1
 63
     7
421
 16777215
176
     1
 74
     2
176
     1
 91
        2
176
     1
 64
     7
176
     1
 65
     7
176
     1
 75
     1
176
     1
175
     1
176
     1
 42
40.0
176
     1
 92
        8
176
     1
 66
     7
176
     1
 43
1.0
176
     1
 76
     1
176
     1
 77
     6
176
     1
 78
     2
176
     1
 67
     7
176
     1
 79
     3
176
     1
170
     0
176
     1
171
     0
176
     1
290
     0
176
     1
 93
        1
176
     1
 44
0.0
176
     1
173
     0
176
     1
1001
ACAD
1000
AcDbSavedByObjectVersion
1070
     0
  0
VISUALSTYLE
  5
1DC73
102
{ACAD_XDICTIONARY
360
1DD3B
102
}
102
{ACAD_REACTORS
330
1AD6C
102
}
330
1AD6C
100
AcDbVisualStyle
  2
Sketchy
 70
    24
177
     2
291
     0
 71
     1
176
     1
 72
     2
176
     1
 73
     2
176
     1
 90
        0
176
     1
 40
0.6
176
     1
 41
30.0
176
     1
 63
     7
421
 16777215
176
     1
 74
     2
176
     1
 91
        2
176
     1
 64
     7
176
     1
 65
     7
176
     1
 75
     1
176
     1
175
     1
176
     1
 42
40.0
176
     1
 92
       11
176
     1
 66
     7
176
     1
 43
1.0
176
     1
 76
     1
176
     1
 77
     6
176
     1
 78
     2
176
     1
 67
     7
176
     1
 79
     6
176
     1
170
     0
176
     1
171
     0
176
     1
290
     0
176
     1
 93
        1
176
     1
 44
0.0
176
     1
173
     0
176
     1
1001
ACAD
1000
AcDbSavedByObjectVersion
1070
     0
  0
VISUALSTYLE
  5
1AD79
102
{ACAD_XDICTIONARY
360
1DD27
102
}
102
{ACAD_REACTORS
330
1AD6C
102
}
330
1AD6C
100
AcDbVisualStyle
  2
Thicken
 70
    13
177
     2
291
     1
 71
     2
176
     1
 72
     2
176
     1
 73
     0
176
     1
 90
        0
176
     1
 40
0.6
176
     1
 41
30.0
176
     1
 63
     7
176
     1
 74
     1
176
     1
 91
        4
176
     1
 64
     7
176
     1
 65
   257
176
     1
 75
     1
176
     1
175
     1
176
     1
 42
1.0
176
     1
 92
       12
176
     1
 66
     7
176
     1
 43
1.0
176
     1
 76
     1
176
     1
 77
     6
176
     1
 78
     2
176
     1
 67
     7
176
     1
 79
     5
176
     1
170
     0
176
     1
171
     0
176
     1
290
     0
176
     1
 93
        1
176
     1
 44
0.0
176
     1
173
     0
176
     1
1001
ACAD
1000
AcDbSavedByObjectVersion
1070
     0
  0
VISUALSTYLE
  5
1DC70
102
{ACAD_XDICTIONARY
360
1DD35
102
}
102
{ACAD_REACTORS
330
1AD6C
102
}
330
1AD6C
100
AcDbVisualStyle
  2
Wireframe
 70
     5
177
     2
291
     0
 71
     0
176
     1
 72
     2
176
     1
 73
     0
176
     1
 90
        0
176
     1
 40
0.6
176
     1
 41
30.0
176
     1
 63
     7
421
 16777215
176
     1
 74
     1
176
     1
 91
        4
176
     1
 64
     7
176
     1
 65
   257
176
     1
 75
     1
176
     1
175
     1
176
     1
 42
1.0
176
     1
 92
        0
176
     1
 66
   257
176
     1
 43
1.0
176
     1
 76
     1
176
     1
 77
     6
176
     1
 78
     2
176
     1
 67
     7
176
     1
 79
     3
176
     1
170
     0
176
     1
171
     0
176
     1
290
     0
176
     1
 93
        1
176
     1
 44
0.0
176
     1
173
     0
176
     1
1001
ACAD
1000
AcDbSavedByObjectVersion
1070
     0
  0
VISUALSTYLE
  5
1DC74
102
{ACAD_XDICTIONARY
360
1DD3D
102
}
102
{ACAD_REACTORS
330
1AD6C
102
}
330
1AD6C
100
AcDbVisualStyle
  2
X-Ray
 70
    25
177
     2
291
     0
 71
     2
176
     1
 72
     2
176
     1
 73
     1
176
     1
 90
        1
176
     1
 40
0.5
176
     1
 41
30.0
176
     1
 63
     7
421
 16777215
176
     1
 74
     1
176
     1
 91
        0
176
     1
 64
     7
176
     1
 65
   257
176
     1
 75
     1
176
     1
175
     1
176
     1
 42
1.0
176
     1
 92
        8
176
     1
 66
     7
176
     1
 43
1.0
176
     1
 76
     1
176
     1
 77
     6
176
     1
 78
     2
176
     1
 67
     7
176
     1
 79
     3
176
     1
170
     0
176
     1
171
     0
176
     1
290
     0
176
     1
 93
       13
176
     1
 44
0.0
176
     1
173
     0
176
     1
1001
ACAD
1000
AcDbSavedByObjectVersion
1070
     0
  0
DICTIONARYVAR
  5
1AE21
102
{ACAD_REACTORS
330
66
102
}
330
66
100
DictionaryVariables
280
     0
  1
1:1
  0
DICTIONARYVAR
  5
1AE20
102
{ACAD_REACTORS
330
66
102
}
330
66
100
DictionaryVariables
280
     0
  1
STANDARD
  0
DICTIONARYVAR
  5
364
102
{ACAD_REACTORS
330
66
102
}
330
66
100
DictionaryVariables
280
     0
  1
STANDARD
  0
DICTIONARYVAR
  5
1DCEE
102
{ACAD_REACTORS
330
66
102
}
330
66
100
DictionaryVariables
280
     0
  1
Imperial24
  0
DICTIONARYVAR
  5
1DCEF
102
{ACAD_REACTORS
330
66
102
}
330
66
100
DictionaryVariables
280
     0
  1
Imperial24
  0
DICTIONARYVAR
  5
67
102
{ACAD_REACTORS
330
66
102
}
330
66
100
DictionaryVariables
280
     0
  1
2
  0
DICTIONARYVAR
  5
6B
102
{ACAD_REACTORS
330
66
102
}
330
66
100
DictionaryVariables
280
     0
  1
1
  0
DICTIONARYVAR
  5
1AE23
102
{ACAD_REACTORS
330
66
102
}
330
66
100
DictionaryVariables
280
     0
  1
0
  0
DICTIONARYVAR
  5
1DC55
102
{ACAD_REACTORS
330
66
102
}
330
66
100
DictionaryVariables
280
     0
  1
1
  0
DICTIONARYVAR
  5
1DC56
102
{ACAD_REACTORS
330
66
102
}
330
66
100
DictionaryVariables
280
     0
  1
15
  0
DICTIONARYVAR
  5
1AF22
102
{ACAD_REACTORS
330
66
102
}
330
66
100
DictionaryVariables
280
     0
  1
0
  0
DICTIONARYVAR
  5
1AF21
102
{ACAD_REACTORS
330
66
102
}
330
66
100
DictionaryVariables
280
     0
  1
0
  0
DICTIONARYVAR
  5
8305
102
{ACAD_REACTORS
330
66
102
}
330
66
100
DictionaryVariables
280
     0
  1

  0
DICTIONARYVAR
  5
1AE22
102
{ACAD_REACTORS
330
66
102
}
330
66
100
DictionaryVariables
280
     0
  1
127
  0
DICTIONARY
  5
1DD0E
102
{ACAD_REACTORS
330
1DD0C
102
}
330
1DD0C
100
AcDbDictionary
281
     1
  0
DICTIONARY
  5
1DD0D
102
{ACAD_REACTORS
330
1DD0C
102
}
330
1DD0C
100
AcDbDictionary
281
     1
  3
2234791110384
350
1DD07
  3
2234791110400
350
1DD08
  3
2234791110416
350
1DD09
  3
2234791110432
350
1DD0A
  3
2234791110448
350
1DD0B
  0
XRECORD
  5
1A4E7
102
{ACAD_REACTORS
330
1A4E5
102
}
330
1A4E5
100
AcDbXrecord
280
     1
330
0
330
0
330
0
330
0
330
0
330
0
330
0
330
0
  0
XRECORD
  5
1402
102
{ACAD_REACTORS
330
1401
102
}
330
1401
100
AcDbXrecord
280
     1
 40
1.0
  0
DICTIONARY
  5
1DCC3
102
{ACAD_REACTORS
330
1DCC2
102
}
330
1DCC2
100
AcDbDictionary
281
     1
  3
*A1
350
1DCC4
  0
DICTIONARY
  5
1DD45
330
1DC7A
100
AcDbDictionary
280
     1
281
     1
  3
ACAD_XREC_ROUNDTRIP
360
1DD46
  0
DICTIONARY
  5
11F01
330
59
100
AcDbDictionary
280
     1
281
     1
  0
DICTIONARY
  5
11F0E
330
5E
100
AcDbDictionary
280
     1
281
     1
  0
DICTIONARY
  5
1DC50
330
22
100
AcDbDictionary
280
     1
281
     1
  0
DICTIONARY
  5
1AD5D
330
1AD5C
100
AcDbDictionary
280
     1
281
     1
  3
BUMPTILE
360
1AD5F
  3
DIFFUSETILE
360
1AD5E
  3
OPACITYTILE
360
1AD62
  3
REFLECTIONTILE
360
1AD61
  3
REFRACTIONTILE
360
1AD63
  3
SPECULARTILE
360
1AD60
  0
DICTIONARY
  5
1AD55
330
1AD54
100
AcDbDictionary
280
     1
281
     1
  3
BUMPTILE
360
1AD57
  3
DIFFUSETILE
360
1AD56
  3
OPACITYTILE
360
1AD5A
  3
REFLECTIONTILE
360
1AD59
  3
REFRACTIONTILE
360
1AD5B
  3
SPECULARTILE
360
1AD58
  0
DICTIONARY
  5
1AD65
330
1AD64
100
AcDbDictionary
280
     1
281
     1
  3
BUMPTILE
360
1AD67
  3
DIFFUSETILE
360
1AD66
  3
OPACITYTILE
360
1AD6A
  3
REFLECTIONTILE
360
1AD69
  3
REFRACTIONTILE
360
1AD6B
  3
SPECULARTILE
360
1AD68
  0
DICTIONARY
  5
1DD43
330
1DC78
100
AcDbDictionary
280
     1
281
     1
  3
ACAD_XREC_ROUNDTRIP
360
1DD44
  0
DICTIONARY
  5
1ADF1
330
37C9
100
AcDbDictionary
280
     1
281
     1
  3
ACAD_ROUNDTRIP_2008_TABLESTYLE_CELLSTYLEMAP
360
1DD02
  0
DICTIONARY
  5
1ADEF
330
36AB
100
AcDbDictionary
280
     1
281
     1
  3
ACAD_ROUNDTRIP_2008_TABLESTYLE_CELLSTYLEMAP
360
1DD01
  0
DICTIONARY
  5
1ADED
330
87
100
AcDbDictionary
280
     1
281
     1
  3
ACAD_ROUNDTRIP_2008_TABLESTYLE_CELLSTYLEMAP
360
1DD00
  0
DICTIONARY
  5
1DD19
330
1AD72
100
AcDbDictionary
280
     1
281
     1
  3
ACAD_XREC_ROUNDTRIP
360
1DD1A
  0
DICTIONARY
  5
1DD1D
330
1AD74
100
AcDbDictionary
280
     1
281
     1
  3
ACAD_XREC_ROUNDTRIP
360
1DD1E
  0
DICTIONARY
  5
1DD1B
330
1AD73
100
AcDbDictionary
280
     1
281
     1
  3
ACAD_XREC_ROUNDTRIP
360
1DD1C
  0
DICTIONARY
  5
1DD17
330
1AD71
100
AcDbDictionary
280
     1
281
     1
  3
ACAD_XREC_ROUNDTRIP
360
1DD18
  0
DICTIONARY
  5
1DD25
330
1AD78
100
AcDbDictionary
280
     1
281
     1
  3
ACAD_XREC_ROUNDTRIP
360
1DD26
  0
DICTIONARY
  5
1DD2D
330
1AD7C
100
AcDbDictionary
280
     1
281
     1
  3
ACAD_XREC_ROUNDTRIP
360
1DD2E
  0
DICTIONARY
  5
1DD1F
330
1AD75
100
AcDbDictionary
280
     1
281
     1
  3
ACAD_XREC_ROUNDTRIP
360
1DD20
  0
DICTIONARY
  5
1DD23
330
1AD77
100
AcDbDictionary
280
     1
281
     1
  3
ACAD_XREC_ROUNDTRIP
360
1DD24
  0
DICTIONARY
  5
1DD33
330
1DC3A
100
AcDbDictionary
280
     1
281
     1
  3
ACAD_XREC_ROUNDTRIP
360
1DD34
  0
DICTIONARY
  5
1DD2B
330
1AD7B
100
AcDbDictionary
280
     1
281
     1
  3
ACAD_XREC_ROUNDTRIP
360
1DD2C
  0
DICTIONARY
  5
1DD0F
330
1AD6D
100
AcDbDictionary
280
     1
281
     1
  3
ACAD_XREC_ROUNDTRIP
360
1DD10
  0
DICTIONARY
  5
1DD11
330
1AD6E
100
AcDbDictionary
280
     1
281
     1
  3
ACAD_XREC_ROUNDTRIP
360
1DD12
  0
DICTIONARY
  5
1DD13
330
1AD6F
100
AcDbDictionary
280
     1
281
     1
  3
ACAD_XREC_ROUNDTRIP
360
1DD14
  0
DICTIONARY
  5
1DD15
330
1AD70
100
AcDbDictionary
280
     1
281
     1
  3
ACAD_XREC_ROUNDTRIP
360
1DD16
  0
DICTIONARY
  5
1DD37
330
1DC71
100
AcDbDictionary
280
     1
281
     1
  3
ACAD_XREC_ROUNDTRIP
360
1DD38
  0
DICTIONARY
  5
1DD2F
330
1DC38
100
AcDbDictionary
280
     1
281
     1
  3
ACAD_XREC_ROUNDTRIP
360
1DD30
  0
DICTIONARY
  5
1DD29
330
1AD7A
100
AcDbDictionary
280
     1
281
     1
  3
ACAD_XREC_ROUNDTRIP
360
1DD2A
  0
DICTIONARY
  5
1DD31
330
1DC39
100
AcDbDictionary
280
     1
281
     1
  3
ACAD_XREC_ROUNDTRIP
360
1DD32
  0
DICTIONARY
  5
1DD21
330
1AD76
100
AcDbDictionary
280
     1
281
     1
  3
ACAD_XREC_ROUNDTRIP
360
1DD22
  0
DICTIONARY
  5
1DD41
330
1DC76
100
AcDbDictionary
280
     1
281
     1
  3
ACAD_XREC_ROUNDTRIP
360
1DD42
  0
DICTIONARY
  5
1DD3F
330
1DC75
100
AcDbDictionary
280
     1
281
     1
  3
ACAD_XREC_ROUNDTRIP
360
1DD40
  0
DICTIONARY
  5
1DD39
330
1DC72
100
AcDbDictionary
280
     1
281
     1
  3
ACAD_XREC_ROUNDTRIP
360
1DD3A
  0
DICTIONARY
  5
1DD3B
330
1DC73
100
AcDbDictionary
280
     1
281
     1
  3
ACAD_XREC_ROUNDTRIP
360
1DD3C
  0
DICTIONARY
  5
1DD27
330
1AD79
100
AcDbDictionary
280
     1
281
     1
  3
ACAD_XREC_ROUNDTRIP
360
1DD28
  0
DICTIONARY
  5
1DD35
330
1DC70
100
AcDbDictionary
280
     1
281
     1
  3
ACAD_XREC_ROUNDTRIP
360
1DD36
  0
DICTIONARY
  5
1DD3D
330
1DC74
100
AcDbDictionary
280
     1
281
     1
  3
ACAD_XREC_ROUNDTRIP
360
1DD3E
  0
XRECORD
  5
1DD07
102
{ACAD_REACTORS
330
1DD0D
102
}
330
1DD0D
100
AcDbXrecord
280
     1
  1
AcDb_Thumbnail_Schema
102
{ATTRRECORD
341
1DD08
  2
AcDbDs::TreatedAsObjectData
280
     1
291
     1
102
ATTRRECORD}
102
{ATTRRECORD
341
1DD09
  2
AcDbDs::Legacy
280
     1
291
     1
102
ATTRRECORD}
  2
AcDbDs::ID
280
    10
 91
        8
102
{ATTRRECORD
341
1DD0A
  2
AcDs:Indexable
280
     1
291
     1
102
ATTRRECORD}
102
{ATTRRECORD
341
1DD0B
  2
AcDbDs::HandleAttribute
280
     7
282
     1
102
ATTRRECORD}
  2
Thumbnail_Data
280
    15
 91
        0
  0
XRECORD
  5
1DD08
102
{ACAD_REACTORS
330
1DD0D
102
}
330
1DD0D
100
AcDbXrecord
280
     1
  1
AcDbDs::TreatedAsObjectDataSchema
  2
AcDbDs::TreatedAsObjectData
280
     1
 91
        0
  0
XRECORD
  5
1DD09
102
{ACAD_REACTORS
330
1DD0D
102
}
330
1DD0D
100
AcDbXrecord
280
     1
  1
AcDbDs::LegacySchema
  2
AcDbDs::Legacy
280
     1
 91
        0
  0
XRECORD
  5
1DD0A
102
{ACAD_REACTORS
330
1DD0D
102
}
330
1DD0D
100
AcDbXrecord
280
     1
  1
AcDbDs::IndexedPropertySchema
  2
AcDs:Indexable
280
     1
 91
        0
  0
XRECORD
  5
1DD0B
102
{ACAD_REACTORS
330
1DD0D
102
}
330
1DD0D
100
AcDbXrecord
280
     1
  1
AcDbDs::HandleAttributeSchema
  2
AcDbDs::HandleAttribute
280
     7
 91
        1
284
     1
  0
ACDB_MTEXTOBJECTCONTEXTDATA_CLASS
  5
1DCC4
102
{ACAD_REACTORS
330
1DCC3
102
}
330
1DCC3
100
AcDbObjectContextData
 70
     4
290
     1
100
AcDbAnnotScaleObjectContextData
340
1AD7E
 70
     1
 10
1.0
 20
0.0
 30
0.0
 11
44.08018991494881
 21
19.76715597576758
 31
0.0
 40
8.720024725233399
 41
0.0
 42
8.634026693461191
 43
0.7187124305753461
 71
     0
  0
XRECORD
  5
1DD46
102
{ACAD_REACTORS
330
1DD45
102
}
330
1DD45
100
AcDbXrecord
280
     1
102
DISPLAYNAME
  1
Imperial24
102
FLAGS
 90
        0
  0
XRECORD
  5
1AD5F
102
{ACAD_REACTORS
330
1AD5D
102
}
330
1AD5D
100
AcDbXrecord
280
     1
270
     1
271
     1
  0
XRECORD
  5
1AD5E
102
{ACAD_REACTORS
330
1AD5D
102
}
330
1AD5D
100
AcDbXrecord
280
     1
270
     1
271
     1
  0
XRECORD
  5
1AD62
102
{ACAD_REACTORS
330
1AD5D
102
}
330
1AD5D
100
AcDbXrecord
280
     1
270
     1
271
     1
  0
XRECORD
  5
1AD61
102
{ACAD_REACTORS
330
1AD5D
102
}
330
1AD5D
100
AcDbXrecord
280
     1
270
     1
271
     1
  0
XRECORD
  5
1AD63
102
{ACAD_REACTORS
330
1AD5D
102
}
330
1AD5D
100
AcDbXrecord
280
     1
270
     1
271
     1
  0
XRECORD
  5
1AD60
102
{ACAD_REACTORS
330
1AD5D
102
}
330
1AD5D
100
AcDbXrecord
280
     1
270
     1
271
     1
  0
XRECORD
  5
1AD57
102
{ACAD_REACTORS
330
1AD55
102
}
330
1AD55
100
AcDbXrecord
280
     1
270
     1
271
     1
  0
XRECORD
  5
1AD56
102
{ACAD_REACTORS
330
1AD55
102
}
330
1AD55
100
AcDbXrecord
280
     1
270
     1
271
     1
  0
XRECORD
  5
1AD5A
102
{ACAD_REACTORS
330
1AD55
102
}
330
1AD55
100
AcDbXrecord
280
     1
270
     1
271
     1
  0
XRECORD
  5
1AD59
102
{ACAD_REACTORS
330
1AD55
102
}
330
1AD55
100
AcDbXrecord
280
     1
270
     1
271
     1
  0
XRECORD
  5
1AD5B
102
{ACAD_REACTORS
330
1AD55
102
}
330
1AD55
100
AcDbXrecord
280
     1
270
     1
271
     1
  0
XRECORD
  5
1AD58
102
{ACAD_REACTORS
330
1AD55
102
}
330
1AD55
100
AcDbXrecord
280
     1
270
     1
271
     1
  0
XRECORD
  5
1AD67
102
{ACAD_REACTORS
330
1AD65
102
}
330
1AD65
100
AcDbXrecord
280
     1
270
     1
271
     1
  0
XRECORD
  5
1AD66
102
{ACAD_REACTORS
330
1AD65
102
}
330
1AD65
100
AcDbXrecord
280
     1
270
     1
271
     1
  0
XRECORD
  5
1AD6A
102
{ACAD_REACTORS
330
1AD65
102
}
330
1AD65
100
AcDbXrecord
280
     1
270
     1
271
     1
  0
XRECORD
  5
1AD69
102
{ACAD_REACTORS
330
1AD65
102
}
330
1AD65
100
AcDbXrecord
280
     1
270
     1
271
     1
  0
XRECORD
  5
1AD6B
102
{ACAD_REACTORS
330
1AD65
102
}
330
1AD65
100
AcDbXrecord
280
     1
270
     1
271
     1
  0
XRECORD
  5
1AD68
102
{ACAD_REACTORS
330
1AD65
102
}
330
1AD65
100
AcDbXrecord
280
     1
270
     1
271
     1
  0
XRECORD
  5
1DD44
102
{ACAD_REACTORS
330
1DD43
102
}
330
1DD43
100
AcDbXrecord
280
     1
102
DISPLAYNAME
  1
Imperial24
102
FLAGS
 90
        0
  0
CELLSTYLEMAP
  5
1DD02
102
{ACAD_REACTORS
330
1ADF1
102
}
330
1ADF1
100
AcDbCellStyleMap
 90
        3
300
CELLSTYLE
  1
TABLEFORMAT_BEGIN
 90
        5
170
     1
 91
        0
 92
    32768
 62
   257
 93
        1
300
CONTENTFORMAT
  1
CONTENTFORMAT_BEGIN
 90
        0
 91
        0
 92
        4
 93
        0
300

 40
0.0
140
1.0
 94
        5
 62
     1
340
36AA
144
0.25
309
CONTENTFORMAT_END
171
     0
 94
        6
 95
        1
302
GRIDFORMAT
  1
GRIDFORMAT_BEGIN
 90
        0
 91
        1
 62
     0
 92
       -2
340
0
 93
        0
 40
0.045
309
GRIDFORMAT_END
 95
        2
302
GRIDFORMAT
  1
GRIDFORMAT_BEGIN
 90
        0
 91
        1
 62
     0
 92
       -2
340
0
 93
        0
 40
0.045
309
GRIDFORMAT_END
 95
        4
302
GRIDFORMAT
  1
GRIDFORMAT_BEGIN
 90
        0
 91
        1
 62
     0
 92
       -2
340
0
 93
        0
 40
0.045
309
GRIDFORMAT_END
 95
        8
302
GRIDFORMAT
  1
GRIDFORMAT_BEGIN
 90
        0
 91
        1
 62
     0
 92
       -2
340
0
 93
        0
 40
0.045
309
GRIDFORMAT_END
 95
       16
302
GRIDFORMAT
  1
GRIDFORMAT_BEGIN
 90
        0
 91
        1
 62
     0
 92
       -2
340
0
 93
        0
 40
0.045
309
GRIDFORMAT_END
 95
       32
302
GRIDFORMAT
  1
GRIDFORMAT_BEGIN
 90
        0
 91
        1
 62
     0
 92
       -2
340
0
 93
        0
 40
0.045
309
GRIDFORMAT_END
309
TABLEFORMAT_END
  1
CELLSTYLE_BEGIN
 90
        1
 91
        1
300
_TITLE
309
CELLSTYLE_END
300
CELLSTYLE
  1
TABLEFORMAT_BEGIN
 90
        5
170
     1
 91
        0
 92
        0
 62
     9
 93
        1
300
CONTENTFORMAT
  1
CONTENTFORMAT_BEGIN
 90
        0
 91
        0
 92
        4
 93
        0
300

 40
0.0
140
1.0
 94
        5
 62
     5
340
36AA
144
0.18
309
CONTENTFORMAT_END
171
     0
 94
        6
 95
        1
302
GRIDFORMAT
  1
GRIDFORMAT_BEGIN
 90
        0
 91
        1
 62
     0
 92
       -2
340
0
 93
        0
 40
0.045
309
GRIDFORMAT_END
 95
        2
302
GRIDFORMAT
  1
GRIDFORMAT_BEGIN
 90
        0
 91
        1
 62
     0
 92
       -2
340
0
 93
        0
 40
0.045
309
GRIDFORMAT_END
 95
        4
302
GRIDFORMAT
  1
GRIDFORMAT_BEGIN
 90
        0
 91
        1
 62
     0
 92
       -2
340
0
 93
        0
 40
0.045
309
GRIDFORMAT_END
 95
        8
302
GRIDFORMAT
  1
GRIDFORMAT_BEGIN
 90
        0
 91
        1
 62
     0
 92
       -2
340
0
 93
        0
 40
0.045
309
GRIDFORMAT_END
 95
       16
302
GRIDFORMAT
  1
GRIDFORMAT_BEGIN
 90
        0
 91
        1
 62
     0
 92
       -2
340
0
 93
        0
 40
0.045
309
GRIDFORMAT_END
 95
       32
302
GRIDFORMAT
  1
GRIDFORMAT_BEGIN
 90
        0
 91
        1
 62
     0
 92
       -2
340
0
 93
        0
 40
0.045
309
GRIDFORMAT_END
309
TABLEFORMAT_END
  1
CELLSTYLE_BEGIN
 90
        2
 91
        1
300
_HEADER
309
CELLSTYLE_END
300
CELLSTYLE
  1
TABLEFORMAT_BEGIN
 90
        5
170
     1
 91
        0
 92
        0
 62
   257
 93
        1
300
CONTENTFORMAT
  1
CONTENTFORMAT_BEGIN
 90
        0
 91
        0
 92
        4
 93
        0
300

 40
0.0
140
1.0
 94
        2
 62
     0
340
36AA
144
0.18
309
CONTENTFORMAT_END
171
     0
 94
        6
 95
        1
302
GRIDFORMAT
  1
GRIDFORMAT_BEGIN
 90
        0
 91
        1
 62
     0
 92
       -2
340
0
 93
        0
 40
0.045
309
GRIDFORMAT_END
 95
        2
302
GRIDFORMAT
  1
GRIDFORMAT_BEGIN
 90
        0
 91
        1
 62
     0
 92
       -2
340
0
 93
        0
 40
0.045
309
GRIDFORMAT_END
 95
        4
302
GRIDFORMAT
  1
GRIDFORMAT_BEGIN
 90
        0
 91
        1
 62
     0
 92
       -2
340
0
 93
        0
 40
0.045
309
GRIDFORMAT_END
 95
        8
302
GRIDFORMAT
  1
GRIDFORMAT_BEGIN
 90
        0
 91
        1
 62
     0
 92
       -2
340
0
 93
        0
 40
0.045
309
GRIDFORMAT_END
 95
       16
302
GRIDFORMAT
  1
GRIDFORMAT_BEGIN
 90
        0
 91
        1
 62
     0
 92
       -2
340
0
 93
        0
 40
0.045
309
GRIDFORMAT_END
 95
       32
302
GRIDFORMAT
  1
GRIDFORMAT_BEGIN
 90
        0
 91
        1
 62
     0
 92
       -2
340
0
 93
        0
 40
0.045
309
GRIDFORMAT_END
309
TABLEFORMAT_END
  1
CELLSTYLE_BEGIN
 90
        3
 91
        2
300
_DATA
309
CELLSTYLE_END
  0
CELLSTYLEMAP
  5
1DD01
102
{ACAD_REACTORS
330
1ADEF
102
}
330
1ADEF
100
AcDbCellStyleMap
 90
        3
300
CELLSTYLE
  1
TABLEFORMAT_BEGIN
 90
        5
170
     1
 91
        0
 92
    32768
 62
   254
420
 14079702
 93
        1
300
CONTENTFORMAT
  1
CONTENTFORMAT_BEGIN
 90
        0
 91
        0
 92
        4
 93
        0
300

 40
0.0
140
1.0
 94
        5
 62
     1
340
36AA
144
6.0
309
CONTENTFORMAT_END
171
     1
301
MARGIN
  1
CELLMARGIN_BEGIN
 40
1.5
 40
1.5
 40
1.5
 40
1.5
 40
0.18
 40
0.18
309
CELLMARGIN_END
 94
        6
 95
        1
302
GRIDFORMAT
  1
GRIDFORMAT_BEGIN
 90
        0
 91
        1
 62
     0
 92
       -2
340
0
 93
        0
 40
0.045
309
GRIDFORMAT_END
 95
        2
302
GRIDFORMAT
  1
GRIDFORMAT_BEGIN
 90
        0
 91
        1
 62
     0
 92
       -2
340
0
 93
        0
 40
0.045
309
GRIDFORMAT_END
 95
        4
302
GRIDFORMAT
  1
GRIDFORMAT_BEGIN
 90
        0
 91
        1
 62
     0
 92
       -2
340
0
 93
        0
 40
0.045
309
GRIDFORMAT_END
 95
        8
302
GRIDFORMAT
  1
GRIDFORMAT_BEGIN
 90
        0
 91
        1
 62
     0
 92
       -2
340
0
 93
        0
 40
0.045
309
GRIDFORMAT_END
 95
       16
302
GRIDFORMAT
  1
GRIDFORMAT_BEGIN
 90
        0
 91
        1
 62
     0
 92
       -2
340
0
 93
        0
 40
0.045
309
GRIDFORMAT_END
 95
       32
302
GRIDFORMAT
  1
GRIDFORMAT_BEGIN
 90
        0
 91
        1
 62
     0
 92
       -2
340
0
 93
        0
 40
0.045
309
GRIDFORMAT_END
309
TABLEFORMAT_END
  1
CELLSTYLE_BEGIN
 90
        1
 91
        1
300
_TITLE
309
CELLSTYLE_END
300
CELLSTYLE
  1
TABLEFORMAT_BEGIN
 90
        5
170
     1
 91
        0
 92
        0
 62
   257
 93
        1
300
CONTENTFORMAT
  1
CONTENTFORMAT_BEGIN
 90
        0
 91
        0
 92
        4
 93
        0
300

 40
0.0
140
1.0
 94
        5
 62
     5
340
36AA
144
4.5
309
CONTENTFORMAT_END
171
     1
301
MARGIN
  1
CELLMARGIN_BEGIN
 40
1.5
 40
1.5
 40
1.5
 40
1.5
 40
0.18
 40
0.18
309
CELLMARGIN_END
 94
        6
 95
        1
302
GRIDFORMAT
  1
GRIDFORMAT_BEGIN
 90
        0
 91
        1
 62
     0
 92
       -2
340
0
 93
        0
 40
0.045
309
GRIDFORMAT_END
 95
        2
302
GRIDFORMAT
  1
GRIDFORMAT_BEGIN
 90
        0
 91
        1
 62
     0
 92
       -2
340
0
 93
        0
 40
0.045
309
GRIDFORMAT_END
 95
        4
302
GRIDFORMAT
  1
GRIDFORMAT_BEGIN
 90
        0
 91
        1
 62
     0
 92
       -2
340
0
 93
        0
 40
0.045
309
GRIDFORMAT_END
 95
        8
302
GRIDFORMAT
  1
GRIDFORMAT_BEGIN
 90
        0
 91
        1
 62
     0
 92
       -2
340
0
 93
        0
 40
0.045
309
GRIDFORMAT_END
 95
       16
302
GRIDFORMAT
  1
GRIDFORMAT_BEGIN
 90
        0
 91
        1
 62
     0
 92
       -2
340
0
 93
        0
 40
0.045
309
GRIDFORMAT_END
 95
       32
302
GRIDFORMAT
  1
GRIDFORMAT_BEGIN
 90
        0
 91
        1
 62
     0
 92
       -2
340
0
 93
        0
 40
0.045
309
GRIDFORMAT_END
309
TABLEFORMAT_END
  1
CELLSTYLE_BEGIN
 90
        2
 91
        1
300
_HEADER
309
CELLSTYLE_END
300
CELLSTYLE
  1
TABLEFORMAT_BEGIN
 90
        5
170
     1
 91
        0
 92
        0
 62
   257
 93
        1
300
CONTENTFORMAT
  1
CONTENTFORMAT_BEGIN
 90
        0
 91
        0
 92
        4
 93
        0
300

 40
0.0
140
1.0
 94
        2
 62
     0
340
36AA
144
4.5
309
CONTENTFORMAT_END
171
     1
301
MARGIN
  1
CELLMARGIN_BEGIN
 40
1.5
 40
1.5
 40
1.5
 40
1.5
 40
0.18
 40
0.18
309
CELLMARGIN_END
 94
        6
 95
        1
302
GRIDFORMAT
  1
GRIDFORMAT_BEGIN
 90
        0
 91
        1
 62
     0
 92
       -2
340
0
 93
        0
 40
0.045
309
GRIDFORMAT_END
 95
        2
302
GRIDFORMAT
  1
GRIDFORMAT_BEGIN
 90
        0
 91
        1
 62
     0
 92
       -2
340
0
 93
        0
 40
0.045
309
GRIDFORMAT_END
 95
        4
302
GRIDFORMAT
  1
GRIDFORMAT_BEGIN
 90
        0
 91
        1
 62
     0
 92
       -2
340
0
 93
        0
 40
0.045
309
GRIDFORMAT_END
 95
        8
302
GRIDFORMAT
  1
GRIDFORMAT_BEGIN
 90
        0
 91
        1
 62
     0
 92
       -2
340
0
 93
        0
 40
0.045
309
GRIDFORMAT_END
 95
       16
302
GRIDFORMAT
  1
GRIDFORMAT_BEGIN
 90
        0
 91
        1
 62
     0
 92
       -2
340
0
 93
        0
 40
0.045
309
GRIDFORMAT_END
 95
       32
302
GRIDFORMAT
  1
GRIDFORMAT_BEGIN
 90
        0
 91
        1
 62
     0
 92
       -2
340
0
 93
        0
 40
0.045
309
GRIDFORMAT_END
309
TABLEFORMAT_END
  1
CELLSTYLE_BEGIN
 90
        3
 91
        2
300
_DATA
309
CELLSTYLE_END
  0
CELLSTYLEMAP
  5
1DD00
102
{ACAD_REACTORS
330
1ADED
102
}
330
1ADED
100
AcDbCellStyleMap
 90
        3
300
CELLSTYLE
  1
TABLEFORMAT_BEGIN
 90
        5
170
     1
 91
        0
 92
    32768
 62
   257
 93
        1
300
CONTENTFORMAT
  1
CONTENTFORMAT_BEGIN
 90
        0
 91
        0
 92
        4
 93
        0
300

 40
0.0
140
1.0
 94
        5
 62
     0
340
11
144
0.25
309
CONTENTFORMAT_END
171
     0
 94
        6
 95
        1
302
GRIDFORMAT
  1
GRIDFORMAT_BEGIN
 90
        0
 91
        1
 62
     0
 92
       -2
340
0
 93
        0
 40
0.045
309
GRIDFORMAT_END
 95
        2
302
GRIDFORMAT
  1
GRIDFORMAT_BEGIN
 90
        0
 91
        1
 62
     0
 92
       -2
340
0
 93
        0
 40
0.045
309
GRIDFORMAT_END
 95
        4
302
GRIDFORMAT
  1
GRIDFORMAT_BEGIN
 90
        0
 91
        1
 62
     0
 92
       -2
340
0
 93
        0
 40
0.045
309
GRIDFORMAT_END
 95
        8
302
GRIDFORMAT
  1
GRIDFORMAT_BEGIN
 90
        0
 91
        1
 62
     0
 92
       -2
340
0
 93
        0
 40
0.045
309
GRIDFORMAT_END
 95
       16
302
GRIDFORMAT
  1
GRIDFORMAT_BEGIN
 90
        0
 91
        1
 62
     0
 92
       -2
340
0
 93
        0
 40
0.045
309
GRIDFORMAT_END
 95
       32
302
GRIDFORMAT
  1
GRIDFORMAT_BEGIN
 90
        0
 91
        1
 62
     0
 92
       -2
340
0
 93
        0
 40
0.045
309
GRIDFORMAT_END
309
TABLEFORMAT_END
  1
CELLSTYLE_BEGIN
 90
        1
 91
        1
300
_TITLE
309
CELLSTYLE_END
300
CELLSTYLE
  1
TABLEFORMAT_BEGIN
 90
        5
170
     1
 91
        0
 92
        0
 62
   257
 93
        1
300
CONTENTFORMAT
  1
CONTENTFORMAT_BEGIN
 90
        0
 91
        0
 92
        4
 93
        0
300

 40
0.0
140
1.0
 94
        5
 62
     0
340
11
144
0.18
309
CONTENTFORMAT_END
171
     0
 94
        6
 95
        1
302
GRIDFORMAT
  1
GRIDFORMAT_BEGIN
 90
        0
 91
        1
 62
     0
 92
       -2
340
0
 93
        0
 40
0.045
309
GRIDFORMAT_END
 95
        2
302
GRIDFORMAT
  1
GRIDFORMAT_BEGIN
 90
        0
 91
        1
 62
     0
 92
       -2
340
0
 93
        0
 40
0.045
309
GRIDFORMAT_END
 95
        4
302
GRIDFORMAT
  1
GRIDFORMAT_BEGIN
 90
        0
 91
        1
 62
     0
 92
       -2
340
0
 93
        0
 40
0.045
309
GRIDFORMAT_END
 95
        8
302
GRIDFORMAT
  1
GRIDFORMAT_BEGIN
 90
        0
 91
        1
 62
     0
 92
       -2
340
0
 93
        0
 40
0.045
309
GRIDFORMAT_END
 95
       16
302
GRIDFORMAT
  1
GRIDFORMAT_BEGIN
 90
        0
 91
        1
 62
     0
 92
       -2
340
0
 93
        0
 40
0.045
309
GRIDFORMAT_END
 95
       32
302
GRIDFORMAT
  1
GRIDFORMAT_BEGIN
 90
        0
 91
        1
 62
     0
 92
       -2
340
0
 93
        0
 40
0.045
309
GRIDFORMAT_END
309
TABLEFORMAT_END
  1
CELLSTYLE_BEGIN
 90
        2
 91
        1
300
_HEADER
309
CELLSTYLE_END
300
CELLSTYLE
  1
TABLEFORMAT_BEGIN
 90
        5
170
     1
 91
        0
 92
        0
 62
   257
 93
        1
300
CONTENTFORMAT
  1
CONTENTFORMAT_BEGIN
 90
        0
 91
        0
 92
        4
 93
        0
300

 40
0.0
140
1.0
 94
        2
 62
     0
340
11
144
0.18
309
CONTENTFORMAT_END
171
     0
 94
        6
 95
        1
302
GRIDFORMAT
  1
GRIDFORMAT_BEGIN
 90
        0
 91
        1
 62
     0
 92
       -2
340
0
 93
        0
 40
0.045
309
GRIDFORMAT_END
 95
        2
302
GRIDFORMAT
  1
GRIDFORMAT_BEGIN
 90
        0
 91
        1
 62
     0
 92
       -2
340
0
 93
        0
 40
0.045
309
GRIDFORMAT_END
 95
        4
302
GRIDFORMAT
  1
GRIDFORMAT_BEGIN
 90
        0
 91
        1
 62
     0
 92
       -2
340
0
 93
        0
 40
0.045
309
GRIDFORMAT_END
 95
        8
302
GRIDFORMAT
  1
GRIDFORMAT_BEGIN
 90
        0
 91
        1
 62
     0
 92
       -2
340
0
 93
        0
 40
0.045
309
GRIDFORMAT_END
 95
       16
302
GRIDFORMAT
  1
GRIDFORMAT_BEGIN
 90
        0
 91
        1
 62
     0
 92
       -2
340
0
 93
        0
 40
0.045
309
GRIDFORMAT_END
 95
       32
302
GRIDFORMAT
  1
GRIDFORMAT_BEGIN
 90
        0
 91
        1
 62
     0
 92
       -2
340
0
 93
        0
 40
0.045
309
GRIDFORMAT_END
309
TABLEFORMAT_END
  1
CELLSTYLE_BEGIN
 90
        3
 91
        2
300
_DATA
309
CELLSTYLE_END
  0
XRECORD
  5
1DD1A
102
{ACAD_REACTORS
330
1DD19
102
}
330
1DD19
100
AcDbXrecord
280
     1
102
RTVSPost2010Prop28
280
     1
102
RTVSPost2010PropOp28
 70
     1
102
RTVSPost2010Prop29
280
     1
102
RTVSPost2010PropOp29
 70
     1
102
RTVSPost2010Prop30
280
     0
102
RTVSPost2010PropOp30
 70
     1
102
RTVSPost2010Prop31
280
     0
102
RTVSPost2010PropOp31
 70
     1
102
RTVSPost2010Prop32
280
     0
102
RTVSPost2010PropOp32
 70
     1
102
RTVSPost2010Prop33
280
     0
102
RTVSPost2010PropOp33
 70
     1
102
RTVSPost2010Prop34
280
     0
102
RTVSPost2010PropOp34
 70
     1
102
RTVSPost2010Prop35
280
     0
102
RTVSPost2010PropOp35
 70
     1
102
RTVSPost2010Prop36
280
     0
102
RTVSPost2010PropOp36
 70
     1
102
RTVSPost2010Prop37
 90
       50
102
RTVSPost2010PropOp37
 70
     1
102
RTVSPost2010Prop38
140
0.0
102
RTVSPost2010PropOp38
 70
     1
102
RTVSPost2010Prop39
140
1.0
102
RTVSPost2010PropOp39
 70
     1
102
RTVSPost2010Prop40
 90
        0
102
RTVSPost2010PropOp40
 70
     1
102
RTVSPost2010Prop41ColorIndex
 90
       18
102
RTVSPost2010Prop41ColorRGB
 90
        0
102
RTVSPost2010PropOp41
 70
     1
102
RTVSPost2010Prop42
 90
       50
102
RTVSPost2010PropOp42
 70
     1
102
RTVSPost2010Prop43
 90
        3
102
RTVSPost2010PropOp43
 70
     1
102
RTVSPost2010Prop44ColorIndex
 90
        5
102
RTVSPost2010Prop44ColorRGB
 90
      255
102
RTVSPost2010PropOp44
 70
     1
102
RTVSPost2010Prop45
280
     0
102
RTVSPost2010PropOp45
 70
     1
102
RTVSPost2010Prop46
 90
       50
102
RTVSPost2010PropOp46
 70
     1
102
RTVSPost2010Prop47
 90
       50
102
RTVSPost2010PropOp47
 70
     1
102
RTVSPost2010Prop48
 90
       50
102
RTVSPost2010PropOp48
 70
     1
102
RTVSPost2010Prop49
280
     0
102
RTVSPost2010PropOp49
 70
     1
102
RTVSPost2010Prop50
 90
       50
102
RTVSPost2010PropOp50
 70
     1
102
RTVSPost2010Prop51ColorIndex
 90
      256
102
RTVSPost2010Prop51ColorRGB
 90
-16777216
102
RTVSPost2010PropOp51
 70
     0
102
RTVSPost2010Prop52
140
1.0
102
RTVSPost2010PropOp52
 70
     0
102
RTVSPost2010Prop53
 90
        2
102
RTVSPost2010PropOp53
 70
     1
102
RTVSPost2010Prop54
  1
strokes_ogs.tif
102
RTVSPost2010PropOp54
 70
     1
102
RTVSPost2010Prop55
280
     0
102
RTVSPost2010PropOp55
 70
     1
102
RTVSPost2010Prop56
140
1.0
102
RTVSPost2010PropOp56
 70
     1
102
RTVSPost2010Prop57
140
1.0
102
RTVSPost2010PropOp57
 70
     1
  0
XRECORD
  5
1DD1E
102
{ACAD_REACTORS
330
1DD1D
102
}
330
1DD1D
100
AcDbXrecord
280
     1
102
RTVSPost2010Prop28
280
     0
102
RTVSPost2010PropOp28
 70
     1
102
RTVSPost2010Prop29
280
     1
102
RTVSPost2010PropOp29
 70
     1
102
RTVSPost2010Prop30
280
     1
102
RTVSPost2010PropOp30
 70
     1
102
RTVSPost2010Prop31
280
     0
102
RTVSPost2010PropOp31
 70
     1
102
RTVSPost2010Prop32
280
     0
102
RTVSPost2010PropOp32
 70
     1
102
RTVSPost2010Prop33
280
     0
102
RTVSPost2010PropOp33
 70
     1
102
RTVSPost2010Prop34
280
     0
102
RTVSPost2010PropOp34
 70
     1
102
RTVSPost2010Prop35
280
     0
102
RTVSPost2010PropOp35
 70
     1
102
RTVSPost2010Prop36
280
     0
102
RTVSPost2010PropOp36
 70
     1
102
RTVSPost2010Prop37
 90
       50
102
RTVSPost2010PropOp37
 70
     1
102
RTVSPost2010Prop38
140
0.0
102
RTVSPost2010PropOp38
 70
     1
102
RTVSPost2010Prop39
140
1.0
102
RTVSPost2010PropOp39
 70
     1
102
RTVSPost2010Prop40
 90
        0
102
RTVSPost2010PropOp40
 70
     1
102
RTVSPost2010Prop41ColorIndex
 90
       18
102
RTVSPost2010Prop41ColorRGB
 90
        0
102
RTVSPost2010PropOp41
 70
     1
102
RTVSPost2010Prop42
 90
       50
102
RTVSPost2010PropOp42
 70
     1
102
RTVSPost2010Prop43
 90
        3
102
RTVSPost2010PropOp43
 70
     1
102
RTVSPost2010Prop44ColorIndex
 90
        5
102
RTVSPost2010Prop44ColorRGB
 90
      255
102
RTVSPost2010PropOp44
 70
     1
102
RTVSPost2010Prop45
280
     0
102
RTVSPost2010PropOp45
 70
     1
102
RTVSPost2010Prop46
 90
       50
102
RTVSPost2010PropOp46
 70
     1
102
RTVSPost2010Prop47
 90
       50
102
RTVSPost2010PropOp47
 70
     1
102
RTVSPost2010Prop48
 90
       50
102
RTVSPost2010PropOp48
 70
     1
102
RTVSPost2010Prop49
280
     0
102
RTVSPost2010PropOp49
 70
     1
102
RTVSPost2010Prop50
 90
       50
102
RTVSPost2010PropOp50
 70
     1
102
RTVSPost2010Prop51ColorIndex
 90
      256
102
RTVSPost2010Prop51ColorRGB
 90
-16777216
102
RTVSPost2010PropOp51
 70
     0
102
RTVSPost2010Prop52
140
1.0
102
RTVSPost2010PropOp52
 70
     0
102
RTVSPost2010Prop53
 90
        2
102
RTVSPost2010PropOp53
 70
     1
102
RTVSPost2010Prop54
  1
strokes_ogs.tif
102
RTVSPost2010PropOp54
 70
     1
102
RTVSPost2010Prop55
280
     0
102
RTVSPost2010PropOp55
 70
     1
102
RTVSPost2010Prop56
140
1.0
102
RTVSPost2010PropOp56
 70
     1
102
RTVSPost2010Prop57
140
1.0
102
RTVSPost2010PropOp57
 70
     1
  0
XRECORD
  5
1DD1C
102
{ACAD_REACTORS
330
1DD1B
102
}
330
1DD1B
100
AcDbXrecord
280
     1
102
RTVSPost2010Prop28
280
     0
102
RTVSPost2010PropOp28
 70
     1
102
RTVSPost2010Prop29
280
     1
102
RTVSPost2010PropOp29
 70
     1
102
RTVSPost2010Prop30
280
     1
102
RTVSPost2010PropOp30
 70
     1
102
RTVSPost2010Prop31
280
     0
102
RTVSPost2010PropOp31
 70
     1
102
RTVSPost2010Prop32
280
     0
102
RTVSPost2010PropOp32
 70
     1
102
RTVSPost2010Prop33
280
     0
102
RTVSPost2010PropOp33
 70
     1
102
RTVSPost2010Prop34
280
     0
102
RTVSPost2010PropOp34
 70
     1
102
RTVSPost2010Prop35
280
     0
102
RTVSPost2010PropOp35
 70
     1
102
RTVSPost2010Prop36
280
     0
102
RTVSPost2010PropOp36
 70
     1
102
RTVSPost2010Prop37
 90
       50
102
RTVSPost2010PropOp37
 70
     1
102
RTVSPost2010Prop38
140
0.0
102
RTVSPost2010PropOp38
 70
     1
102
RTVSPost2010Prop39
140
1.0
102
RTVSPost2010PropOp39
 70
     1
102
RTVSPost2010Prop40
 90
        0
102
RTVSPost2010PropOp40
 70
     1
102
RTVSPost2010Prop41ColorIndex
 90
       18
102
RTVSPost2010Prop41ColorRGB
 90
        0
102
RTVSPost2010PropOp41
 70
     1
102
RTVSPost2010Prop42
 90
       50
102
RTVSPost2010PropOp42
 70
     1
102
RTVSPost2010Prop43
 90
        3
102
RTVSPost2010PropOp43
 70
     1
102
RTVSPost2010Prop44ColorIndex
 90
        5
102
RTVSPost2010Prop44ColorRGB
 90
      255
102
RTVSPost2010PropOp44
 70
     1
102
RTVSPost2010Prop45
280
     0
102
RTVSPost2010PropOp45
 70
     1
102
RTVSPost2010Prop46
 90
       50
102
RTVSPost2010PropOp46
 70
     1
102
RTVSPost2010Prop47
 90
       50
102
RTVSPost2010PropOp47
 70
     1
102
RTVSPost2010Prop48
 90
       50
102
RTVSPost2010PropOp48
 70
     1
102
RTVSPost2010Prop49
280
     0
102
RTVSPost2010PropOp49
 70
     1
102
RTVSPost2010Prop50
 90
       50
102
RTVSPost2010PropOp50
 70
     1
102
RTVSPost2010Prop51ColorIndex
 90
      256
102
RTVSPost2010Prop51ColorRGB
 90
-16777216
102
RTVSPost2010PropOp51
 70
     0
102
RTVSPost2010Prop52
140
1.0
102
RTVSPost2010PropOp52
 70
     0
102
RTVSPost2010Prop53
 90
        2
102
RTVSPost2010PropOp53
 70
     1
102
RTVSPost2010Prop54
  1
strokes_ogs.tif
102
RTVSPost2010PropOp54
 70
     1
102
RTVSPost2010Prop55
280
     0
102
RTVSPost2010PropOp55
 70
     1
102
RTVSPost2010Prop56
140
1.0
102
RTVSPost2010PropOp56
 70
     1
102
RTVSPost2010Prop57
140
1.0
102
RTVSPost2010PropOp57
 70
     1
  0
XRECORD
  5
1DD18
102
{ACAD_REACTORS
330
1DD17
102
}
330
1DD17
100
AcDbXrecord
280
     1
102
RTVSPost2010Prop28
280
     0
102
RTVSPost2010PropOp28
 70
     1
102
RTVSPost2010Prop29
280
     1
102
RTVSPost2010PropOp29
 70
     1
102
RTVSPost2010Prop30
280
     1
102
RTVSPost2010PropOp30
 70
     1
102
RTVSPost2010Prop31
280
     0
102
RTVSPost2010PropOp31
 70
     1
102
RTVSPost2010Prop32
280
     0
102
RTVSPost2010PropOp32
 70
     1
102
RTVSPost2010Prop33
280
     0
102
RTVSPost2010PropOp33
 70
     1
102
RTVSPost2010Prop34
280
     0
102
RTVSPost2010PropOp34
 70
     1
102
RTVSPost2010Prop35
280
     0
102
RTVSPost2010PropOp35
 70
     1
102
RTVSPost2010Prop36
280
     0
102
RTVSPost2010PropOp36
 70
     1
102
RTVSPost2010Prop37
 90
       50
102
RTVSPost2010PropOp37
 70
     1
102
RTVSPost2010Prop38
140
0.0
102
RTVSPost2010PropOp38
 70
     1
102
RTVSPost2010Prop39
140
1.0
102
RTVSPost2010PropOp39
 70
     1
102
RTVSPost2010Prop40
 90
        0
102
RTVSPost2010PropOp40
 70
     1
102
RTVSPost2010Prop41ColorIndex
 90
       18
102
RTVSPost2010Prop41ColorRGB
 90
        0
102
RTVSPost2010PropOp41
 70
     1
102
RTVSPost2010Prop42
 90
       50
102
RTVSPost2010PropOp42
 70
     1
102
RTVSPost2010Prop43
 90
        3
102
RTVSPost2010PropOp43
 70
     1
102
RTVSPost2010Prop44ColorIndex
 90
        5
102
RTVSPost2010Prop44ColorRGB
 90
      255
102
RTVSPost2010PropOp44
 70
     1
102
RTVSPost2010Prop45
280
     0
102
RTVSPost2010PropOp45
 70
     1
102
RTVSPost2010Prop46
 90
       50
102
RTVSPost2010PropOp46
 70
     1
102
RTVSPost2010Prop47
 90
       50
102
RTVSPost2010PropOp47
 70
     1
102
RTVSPost2010Prop48
 90
       50
102
RTVSPost2010PropOp48
 70
     1
102
RTVSPost2010Prop49
280
     0
102
RTVSPost2010PropOp49
 70
     1
102
RTVSPost2010Prop50
 90
       50
102
RTVSPost2010PropOp50
 70
     1
102
RTVSPost2010Prop51ColorIndex
 90
      256
102
RTVSPost2010Prop51ColorRGB
 90
-16777216
102
RTVSPost2010PropOp51
 70
     0
102
RTVSPost2010Prop52
140
1.0
102
RTVSPost2010PropOp52
 70
     0
102
RTVSPost2010Prop53
 90
        2
102
RTVSPost2010PropOp53
 70
     1
102
RTVSPost2010Prop54
  1
strokes_ogs.tif
102
RTVSPost2010PropOp54
 70
     1
102
RTVSPost2010Prop55
280
     0
102
RTVSPost2010PropOp55
 70
     1
102
RTVSPost2010Prop56
140
1.0
102
RTVSPost2010PropOp56
 70
     1
102
RTVSPost2010Prop57
140
1.0
102
RTVSPost2010PropOp57
 70
     1
  0
XRECORD
  5
1DD26
102
{ACAD_REACTORS
330
1DD25
102
}
330
1DD25
100
AcDbXrecord
280
     1
102
RTVSPost2010Prop28
280
     0
102
RTVSPost2010PropOp28
 70
     1
102
RTVSPost2010Prop29
280
     1
102
RTVSPost2010PropOp29
 70
     1
102
RTVSPost2010Prop30
280
     1
102
RTVSPost2010PropOp30
 70
     1
102
RTVSPost2010Prop31
280
     0
102
RTVSPost2010PropOp31
 70
     1
102
RTVSPost2010Prop32
280
     0
102
RTVSPost2010PropOp32
 70
     1
102
RTVSPost2010Prop33
280
     0
102
RTVSPost2010PropOp33
 70
     1
102
RTVSPost2010Prop34
280
     0
102
RTVSPost2010PropOp34
 70
     1
102
RTVSPost2010Prop35
280
     0
102
RTVSPost2010PropOp35
 70
     1
102
RTVSPost2010Prop36
280
     0
102
RTVSPost2010PropOp36
 70
     1
102
RTVSPost2010Prop37
 90
       50
102
RTVSPost2010PropOp37
 70
     1
102
RTVSPost2010Prop38
140
0.0
102
RTVSPost2010PropOp38
 70
     1
102
RTVSPost2010Prop39
140
1.0
102
RTVSPost2010PropOp39
 70
     1
102
RTVSPost2010Prop40
 90
        0
102
RTVSPost2010PropOp40
 70
     1
102
RTVSPost2010Prop41ColorIndex
 90
       18
102
RTVSPost2010Prop41ColorRGB
 90
        0
102
RTVSPost2010PropOp41
 70
     1
102
RTVSPost2010Prop42
 90
       50
102
RTVSPost2010PropOp42
 70
     1
102
RTVSPost2010Prop43
 90
        3
102
RTVSPost2010PropOp43
 70
     1
102
RTVSPost2010Prop44ColorIndex
 90
        5
102
RTVSPost2010Prop44ColorRGB
 90
      255
102
RTVSPost2010PropOp44
 70
     1
102
RTVSPost2010Prop45
280
     0
102
RTVSPost2010PropOp45
 70
     1
102
RTVSPost2010Prop46
 90
       50
102
RTVSPost2010PropOp46
 70
     1
102
RTVSPost2010Prop47
 90
       50
102
RTVSPost2010PropOp47
 70
     1
102
RTVSPost2010Prop48
 90
       50
102
RTVSPost2010PropOp48
 70
     1
102
RTVSPost2010Prop49
280
     0
102
RTVSPost2010PropOp49
 70
     1
102
RTVSPost2010Prop50
 90
       50
102
RTVSPost2010PropOp50
 70
     1
102
RTVSPost2010Prop51ColorIndex
 90
      256
102
RTVSPost2010Prop51ColorRGB
 90
-16777216
102
RTVSPost2010PropOp51
 70
     0
102
RTVSPost2010Prop52
140
1.0
102
RTVSPost2010PropOp52
 70
     0
102
RTVSPost2010Prop53
 90
        2
102
RTVSPost2010PropOp53
 70
     1
102
RTVSPost2010Prop54
  1
strokes_ogs.tif
102
RTVSPost2010PropOp54
 70
     1
102
RTVSPost2010Prop55
280
     0
102
RTVSPost2010PropOp55
 70
     1
102
RTVSPost2010Prop56
140
1.0
102
RTVSPost2010PropOp56
 70
     1
102
RTVSPost2010Prop57
140
1.0
102
RTVSPost2010PropOp57
 70
     1
  0
XRECORD
  5
1DD2E
102
{ACAD_REACTORS
330
1DD2D
102
}
330
1DD2D
100
AcDbXrecord
280
     1
102
RTVSPost2010Prop28
280
     0
102
RTVSPost2010PropOp28
 70
     1
102
RTVSPost2010Prop29
280
     1
102
RTVSPost2010PropOp29
 70
     1
102
RTVSPost2010Prop30
280
     1
102
RTVSPost2010PropOp30
 70
     1
102
RTVSPost2010Prop31
280
     0
102
RTVSPost2010PropOp31
 70
     1
102
RTVSPost2010Prop32
280
     0
102
RTVSPost2010PropOp32
 70
     1
102
RTVSPost2010Prop33
280
     0
102
RTVSPost2010PropOp33
 70
     1
102
RTVSPost2010Prop34
280
     0
102
RTVSPost2010PropOp34
 70
     1
102
RTVSPost2010Prop35
280
     0
102
RTVSPost2010PropOp35
 70
     1
102
RTVSPost2010Prop36
280
     0
102
RTVSPost2010PropOp36
 70
     1
102
RTVSPost2010Prop37
 90
       50
102
RTVSPost2010PropOp37
 70
     1
102
RTVSPost2010Prop38
140
0.0
102
RTVSPost2010PropOp38
 70
     1
102
RTVSPost2010Prop39
140
1.0
102
RTVSPost2010PropOp39
 70
     1
102
RTVSPost2010Prop40
 90
        0
102
RTVSPost2010PropOp40
 70
     1
102
RTVSPost2010Prop41ColorIndex
 90
       18
102
RTVSPost2010Prop41ColorRGB
 90
        0
102
RTVSPost2010PropOp41
 70
     1
102
RTVSPost2010Prop42
 90
       50
102
RTVSPost2010PropOp42
 70
     1
102
RTVSPost2010Prop43
 90
        3
102
RTVSPost2010PropOp43
 70
     1
102
RTVSPost2010Prop44ColorIndex
 90
        5
102
RTVSPost2010Prop44ColorRGB
 90
      255
102
RTVSPost2010PropOp44
 70
     1
102
RTVSPost2010Prop45
280
     0
102
RTVSPost2010PropOp45
 70
     1
102
RTVSPost2010Prop46
 90
       50
102
RTVSPost2010PropOp46
 70
     1
102
RTVSPost2010Prop47
 90
       50
102
RTVSPost2010PropOp47
 70
     1
102
RTVSPost2010Prop48
 90
       50
102
RTVSPost2010PropOp48
 70
     1
102
RTVSPost2010Prop49
280
     0
102
RTVSPost2010PropOp49
 70
     1
102
RTVSPost2010Prop50
 90
       50
102
RTVSPost2010PropOp50
 70
     1
102
RTVSPost2010Prop51ColorIndex
 90
      256
102
RTVSPost2010Prop51ColorRGB
 90
-16777216
102
RTVSPost2010PropOp51
 70
     0
102
RTVSPost2010Prop52
140
1.0
102
RTVSPost2010PropOp52
 70
     0
102
RTVSPost2010Prop53
 90
        2
102
RTVSPost2010PropOp53
 70
     1
102
RTVSPost2010Prop54
  1
strokes_ogs.tif
102
RTVSPost2010PropOp54
 70
     1
102
RTVSPost2010Prop55
280
     0
102
RTVSPost2010PropOp55
 70
     1
102
RTVSPost2010Prop56
140
1.0
102
RTVSPost2010PropOp56
 70
     1
102
RTVSPost2010Prop57
140
1.0
102
RTVSPost2010PropOp57
 70
     1
  0
XRECORD
  5
1DD20
102
{ACAD_REACTORS
330
1DD1F
102
}
330
1DD1F
100
AcDbXrecord
280
     1
102
RTVSPost2010Prop28
280
     0
102
RTVSPost2010PropOp28
 70
     1
102
RTVSPost2010Prop29
280
     1
102
RTVSPost2010PropOp29
 70
     1
102
RTVSPost2010Prop30
280
     1
102
RTVSPost2010PropOp30
 70
     1
102
RTVSPost2010Prop31
280
     0
102
RTVSPost2010PropOp31
 70
     1
102
RTVSPost2010Prop32
280
     0
102
RTVSPost2010PropOp32
 70
     1
102
RTVSPost2010Prop33
280
     0
102
RTVSPost2010PropOp33
 70
     1
102
RTVSPost2010Prop34
280
     0
102
RTVSPost2010PropOp34
 70
     1
102
RTVSPost2010Prop35
280
     0
102
RTVSPost2010PropOp35
 70
     1
102
RTVSPost2010Prop36
280
     0
102
RTVSPost2010PropOp36
 70
     1
102
RTVSPost2010Prop37
 90
       50
102
RTVSPost2010PropOp37
 70
     1
102
RTVSPost2010Prop38
140
0.0
102
RTVSPost2010PropOp38
 70
     1
102
RTVSPost2010Prop39
140
1.0
102
RTVSPost2010PropOp39
 70
     1
102
RTVSPost2010Prop40
 90
        0
102
RTVSPost2010PropOp40
 70
     1
102
RTVSPost2010Prop41ColorIndex
 90
       18
102
RTVSPost2010Prop41ColorRGB
 90
        0
102
RTVSPost2010PropOp41
 70
     1
102
RTVSPost2010Prop42
 90
       50
102
RTVSPost2010PropOp42
 70
     1
102
RTVSPost2010Prop43
 90
        3
102
RTVSPost2010PropOp43
 70
     1
102
RTVSPost2010Prop44ColorIndex
 90
        5
102
RTVSPost2010Prop44ColorRGB
 90
      255
102
RTVSPost2010PropOp44
 70
     1
102
RTVSPost2010Prop45
280
     0
102
RTVSPost2010PropOp45
 70
     1
102
RTVSPost2010Prop46
 90
       50
102
RTVSPost2010PropOp46
 70
     1
102
RTVSPost2010Prop47
 90
       50
102
RTVSPost2010PropOp47
 70
     1
102
RTVSPost2010Prop48
 90
       50
102
RTVSPost2010PropOp48
 70
     1
102
RTVSPost2010Prop49
280
     0
102
RTVSPost2010PropOp49
 70
     1
102
RTVSPost2010Prop50
 90
       50
102
RTVSPost2010PropOp50
 70
     1
102
RTVSPost2010Prop51ColorIndex
 90
      256
102
RTVSPost2010Prop51ColorRGB
 90
-16777216
102
RTVSPost2010PropOp51
 70
     0
102
RTVSPost2010Prop52
140
1.0
102
RTVSPost2010PropOp52
 70
     0
102
RTVSPost2010Prop53
 90
        2
102
RTVSPost2010PropOp53
 70
     1
102
RTVSPost2010Prop54
  1
strokes_ogs.tif
102
RTVSPost2010PropOp54
 70
     1
102
RTVSPost2010Prop55
280
     0
102
RTVSPost2010PropOp55
 70
     1
102
RTVSPost2010Prop56
140
1.0
102
RTVSPost2010PropOp56
 70
     1
102
RTVSPost2010Prop57
140
1.0
102
RTVSPost2010PropOp57
 70
     1
  0
XRECORD
  5
1DD24
102
{ACAD_REACTORS
330
1DD23
102
}
330
1DD23
100
AcDbXrecord
280
     1
102
RTVSPost2010Prop28
280
     0
102
RTVSPost2010PropOp28
 70
     1
102
RTVSPost2010Prop29
280
     1
102
RTVSPost2010PropOp29
 70
     1
102
RTVSPost2010Prop30
280
     1
102
RTVSPost2010PropOp30
 70
     1
102
RTVSPost2010Prop31
280
     0
102
RTVSPost2010PropOp31
 70
     1
102
RTVSPost2010Prop32
280
     0
102
RTVSPost2010PropOp32
 70
     1
102
RTVSPost2010Prop33
280
     0
102
RTVSPost2010PropOp33
 70
     1
102
RTVSPost2010Prop34
280
     0
102
RTVSPost2010PropOp34
 70
     1
102
RTVSPost2010Prop35
280
     0
102
RTVSPost2010PropOp35
 70
     1
102
RTVSPost2010Prop36
280
     0
102
RTVSPost2010PropOp36
 70
     1
102
RTVSPost2010Prop37
 90
       50
102
RTVSPost2010PropOp37
 70
     1
102
RTVSPost2010Prop38
140
0.0
102
RTVSPost2010PropOp38
 70
     1
102
RTVSPost2010Prop39
140
1.0
102
RTVSPost2010PropOp39
 70
     1
102
RTVSPost2010Prop40
 90
        0
102
RTVSPost2010PropOp40
 70
     1
102
RTVSPost2010Prop41ColorIndex
 90
       18
102
RTVSPost2010Prop41ColorRGB
 90
        0
102
RTVSPost2010PropOp41
 70
     1
102
RTVSPost2010Prop42
 90
       50
102
RTVSPost2010PropOp42
 70
     1
102
RTVSPost2010Prop43
 90
        3
102
RTVSPost2010PropOp43
 70
     1
102
RTVSPost2010Prop44ColorIndex
 90
        5
102
RTVSPost2010Prop44ColorRGB
 90
      255
102
RTVSPost2010PropOp44
 70
     1
102
RTVSPost2010Prop45
280
     0
102
RTVSPost2010PropOp45
 70
     1
102
RTVSPost2010Prop46
 90
       50
102
RTVSPost2010PropOp46
 70
     1
102
RTVSPost2010Prop47
 90
       50
102
RTVSPost2010PropOp47
 70
     1
102
RTVSPost2010Prop48
 90
       50
102
RTVSPost2010PropOp48
 70
     1
102
RTVSPost2010Prop49
280
     0
102
RTVSPost2010PropOp49
 70
     1
102
RTVSPost2010Prop50
 90
       50
102
RTVSPost2010PropOp50
 70
     1
102
RTVSPost2010Prop51ColorIndex
 90
      256
102
RTVSPost2010Prop51ColorRGB
 90
-16777216
102
RTVSPost2010PropOp51
 70
     0
102
RTVSPost2010Prop52
140
1.0
102
RTVSPost2010PropOp52
 70
     0
102
RTVSPost2010Prop53
 90
        2
102
RTVSPost2010PropOp53
 70
     1
102
RTVSPost2010Prop54
  1
strokes_ogs.tif
102
RTVSPost2010PropOp54
 70
     1
102
RTVSPost2010Prop55
280
     0
102
RTVSPost2010PropOp55
 70
     1
102
RTVSPost2010Prop56
140
1.0
102
RTVSPost2010PropOp56
 70
     1
102
RTVSPost2010Prop57
140
1.0
102
RTVSPost2010PropOp57
 70
     1
  0
XRECORD
  5
1DD34
102
{ACAD_REACTORS
330
1DD33
102
}
330
1DD33
100
AcDbXrecord
280
     1
102
RTVSPost2010Prop28
280
     0
102
RTVSPost2010PropOp28
 70
     1
102
RTVSPost2010Prop29
280
     1
102
RTVSPost2010PropOp29
 70
     1
102
RTVSPost2010Prop30
280
     1
102
RTVSPost2010PropOp30
 70
     1
102
RTVSPost2010Prop31
280
     0
102
RTVSPost2010PropOp31
 70
     1
102
RTVSPost2010Prop32
280
     0
102
RTVSPost2010PropOp32
 70
     1
102
RTVSPost2010Prop33
280
     0
102
RTVSPost2010PropOp33
 70
     1
102
RTVSPost2010Prop34
280
     0
102
RTVSPost2010PropOp34
 70
     1
102
RTVSPost2010Prop35
280
     0
102
RTVSPost2010PropOp35
 70
     1
102
RTVSPost2010Prop36
280
     0
102
RTVSPost2010PropOp36
 70
     1
102
RTVSPost2010Prop37
 90
       50
102
RTVSPost2010PropOp37
 70
     1
102
RTVSPost2010Prop38
140
0.0
102
RTVSPost2010PropOp38
 70
     1
102
RTVSPost2010Prop39
140
1.0
102
RTVSPost2010PropOp39
 70
     1
102
RTVSPost2010Prop40
 90
        0
102
RTVSPost2010PropOp40
 70
     1
102
RTVSPost2010Prop41ColorIndex
 90
       18
102
RTVSPost2010Prop41ColorRGB
 90
        0
102
RTVSPost2010PropOp41
 70
     1
102
RTVSPost2010Prop42
 90
       50
102
RTVSPost2010PropOp42
 70
     1
102
RTVSPost2010Prop43
 90
        3
102
RTVSPost2010PropOp43
 70
     1
102
RTVSPost2010Prop44ColorIndex
 90
        5
102
RTVSPost2010Prop44ColorRGB
 90
      255
102
RTVSPost2010PropOp44
 70
     1
102
RTVSPost2010Prop45
280
     0
102
RTVSPost2010PropOp45
 70
     1
102
RTVSPost2010Prop46
 90
       50
102
RTVSPost2010PropOp46
 70
     1
102
RTVSPost2010Prop47
 90
       50
102
RTVSPost2010PropOp47
 70
     1
102
RTVSPost2010Prop48
 90
       50
102
RTVSPost2010PropOp48
 70
     1
102
RTVSPost2010Prop49
280
     0
102
RTVSPost2010PropOp49
 70
     1
102
RTVSPost2010Prop50
 90
       50
102
RTVSPost2010PropOp50
 70
     1
102
RTVSPost2010Prop51ColorIndex
 90
      256
102
RTVSPost2010Prop51ColorRGB
 90
-16777216
102
RTVSPost2010PropOp51
 70
     0
102
RTVSPost2010Prop52
140
1.0
102
RTVSPost2010PropOp52
 70
     0
102
RTVSPost2010Prop53
 90
        2
102
RTVSPost2010PropOp53
 70
     1
102
RTVSPost2010Prop54
  1
strokes_ogs.tif
102
RTVSPost2010PropOp54
 70
     1
102
RTVSPost2010Prop55
280
     0
102
RTVSPost2010PropOp55
 70
     1
102
RTVSPost2010Prop56
140
1.0
102
RTVSPost2010PropOp56
 70
     1
102
RTVSPost2010Prop57
140
1.0
102
RTVSPost2010PropOp57
 70
     1
  0
XRECORD
  5
1DD2C
102
{ACAD_REACTORS
330
1DD2B
102
}
330
1DD2B
100
AcDbXrecord
280
     1
102
RTVSPost2010Prop28
280
     0
102
RTVSPost2010PropOp28
 70
     1
102
RTVSPost2010Prop29
280
     1
102
RTVSPost2010PropOp29
 70
     1
102
RTVSPost2010Prop30
280
     1
102
RTVSPost2010PropOp30
 70
     1
102
RTVSPost2010Prop31
280
     0
102
RTVSPost2010PropOp31
 70
     1
102
RTVSPost2010Prop32
280
     0
102
RTVSPost2010PropOp32
 70
     1
102
RTVSPost2010Prop33
280
     0
102
RTVSPost2010PropOp33
 70
     1
102
RTVSPost2010Prop34
280
     0
102
RTVSPost2010PropOp34
 70
     1
102
RTVSPost2010Prop35
280
     0
102
RTVSPost2010PropOp35
 70
     1
102
RTVSPost2010Prop36
280
     0
102
RTVSPost2010PropOp36
 70
     1
102
RTVSPost2010Prop37
 90
       50
102
RTVSPost2010PropOp37
 70
     1
102
RTVSPost2010Prop38
140
0.0
102
RTVSPost2010PropOp38
 70
     1
102
RTVSPost2010Prop39
140
1.0
102
RTVSPost2010PropOp39
 70
     1
102
RTVSPost2010Prop40
 90
        0
102
RTVSPost2010PropOp40
 70
     1
102
RTVSPost2010Prop41ColorIndex
 90
       18
102
RTVSPost2010Prop41ColorRGB
 90
        0
102
RTVSPost2010PropOp41
 70
     1
102
RTVSPost2010Prop42
 90
       50
102
RTVSPost2010PropOp42
 70
     1
102
RTVSPost2010Prop43
 90
        3
102
RTVSPost2010PropOp43
 70
     1
102
RTVSPost2010Prop44ColorIndex
 90
        5
102
RTVSPost2010Prop44ColorRGB
 90
      255
102
RTVSPost2010PropOp44
 70
     1
102
RTVSPost2010Prop45
280
     0
102
RTVSPost2010PropOp45
 70
     1
102
RTVSPost2010Prop46
 90
       50
102
RTVSPost2010PropOp46
 70
     1
102
RTVSPost2010Prop47
 90
       50
102
RTVSPost2010PropOp47
 70
     1
102
RTVSPost2010Prop48
 90
       50
102
RTVSPost2010PropOp48
 70
     1
102
RTVSPost2010Prop49
280
     0
102
RTVSPost2010PropOp49
 70
     1
102
RTVSPost2010Prop50
 90
       50
102
RTVSPost2010PropOp50
 70
     1
102
RTVSPost2010Prop51ColorIndex
 90
      256
102
RTVSPost2010Prop51ColorRGB
 90
-16777216
102
RTVSPost2010PropOp51
 70
     0
102
RTVSPost2010Prop52
140
1.0
102
RTVSPost2010PropOp52
 70
     0
102
RTVSPost2010Prop53
 90
        2
102
RTVSPost2010PropOp53
 70
     1
102
RTVSPost2010Prop54
  1
strokes_ogs.tif
102
RTVSPost2010PropOp54
 70
     1
102
RTVSPost2010Prop55
280
     0
102
RTVSPost2010PropOp55
 70
     1
102
RTVSPost2010Prop56
140
1.0
102
RTVSPost2010PropOp56
 70
     1
102
RTVSPost2010Prop57
140
1.0
102
RTVSPost2010PropOp57
 70
     1
  0
XRECORD
  5
1DD10
102
{ACAD_REACTORS
330
1DD0F
102
}
330
1DD0F
100
AcDbXrecord
280
     1
102
RTVSPost2010Prop28
280
     0
102
RTVSPost2010PropOp28
 70
     1
102
RTVSPost2010Prop29
280
     1
102
RTVSPost2010PropOp29
 70
     1
102
RTVSPost2010Prop30
280
     1
102
RTVSPost2010PropOp30
 70
     1
102
RTVSPost2010Prop31
280
     0
102
RTVSPost2010PropOp31
 70
     1
102
RTVSPost2010Prop32
280
     0
102
RTVSPost2010PropOp32
 70
     1
102
RTVSPost2010Prop33
280
     0
102
RTVSPost2010PropOp33
 70
     1
102
RTVSPost2010Prop34
280
     0
102
RTVSPost2010PropOp34
 70
     1
102
RTVSPost2010Prop35
280
     0
102
RTVSPost2010PropOp35
 70
     1
102
RTVSPost2010Prop36
280
     0
102
RTVSPost2010PropOp36
 70
     1
102
RTVSPost2010Prop37
 90
       50
102
RTVSPost2010PropOp37
 70
     1
102
RTVSPost2010Prop38
140
0.0
102
RTVSPost2010PropOp38
 70
     1
102
RTVSPost2010Prop39
140
1.0
102
RTVSPost2010PropOp39
 70
     1
102
RTVSPost2010Prop40
 90
        0
102
RTVSPost2010PropOp40
 70
     1
102
RTVSPost2010Prop41ColorIndex
 90
       18
102
RTVSPost2010Prop41ColorRGB
 90
        0
102
RTVSPost2010PropOp41
 70
     1
102
RTVSPost2010Prop42
 90
       50
102
RTVSPost2010PropOp42
 70
     1
102
RTVSPost2010Prop43
 90
        3
102
RTVSPost2010PropOp43
 70
     1
102
RTVSPost2010Prop44ColorIndex
 90
        5
102
RTVSPost2010Prop44ColorRGB
 90
      255
102
RTVSPost2010PropOp44
 70
     1
102
RTVSPost2010Prop45
280
     0
102
RTVSPost2010PropOp45
 70
     1
102
RTVSPost2010Prop46
 90
       50
102
RTVSPost2010PropOp46
 70
     1
102
RTVSPost2010Prop47
 90
       50
102
RTVSPost2010PropOp47
 70
     1
102
RTVSPost2010Prop48
 90
       50
102
RTVSPost2010PropOp48
 70
     1
102
RTVSPost2010Prop49
280
     0
102
RTVSPost2010PropOp49
 70
     1
102
RTVSPost2010Prop50
 90
       50
102
RTVSPost2010PropOp50
 70
     1
102
RTVSPost2010Prop51ColorIndex
 90
      256
102
RTVSPost2010Prop51ColorRGB
 90
-16777216
102
RTVSPost2010PropOp51
 70
     0
102
RTVSPost2010Prop52
140
1.0
102
RTVSPost2010PropOp52
 70
     0
102
RTVSPost2010Prop53
 90
        2
102
RTVSPost2010PropOp53
 70
     1
102
RTVSPost2010Prop54
  1
strokes_ogs.tif
102
RTVSPost2010PropOp54
 70
     1
102
RTVSPost2010Prop55
280
     0
102
RTVSPost2010PropOp55
 70
     1
102
RTVSPost2010Prop56
140
1.0
102
RTVSPost2010PropOp56
 70
     1
102
RTVSPost2010Prop57
140
1.0
102
RTVSPost2010PropOp57
 70
     1
  0
XRECORD
  5
1DD12
102
{ACAD_REACTORS
330
1DD11
102
}
330
1DD11
100
AcDbXrecord
280
     1
102
RTVSPost2010Prop28
280
     0
102
RTVSPost2010PropOp28
 70
     1
102
RTVSPost2010Prop29
280
     1
102
RTVSPost2010PropOp29
 70
     1
102
RTVSPost2010Prop30
280
     1
102
RTVSPost2010PropOp30
 70
     1
102
RTVSPost2010Prop31
280
     0
102
RTVSPost2010PropOp31
 70
     1
102
RTVSPost2010Prop32
280
     0
102
RTVSPost2010PropOp32
 70
     1
102
RTVSPost2010Prop33
280
     0
102
RTVSPost2010PropOp33
 70
     1
102
RTVSPost2010Prop34
280
     0
102
RTVSPost2010PropOp34
 70
     1
102
RTVSPost2010Prop35
280
     0
102
RTVSPost2010PropOp35
 70
     1
102
RTVSPost2010Prop36
280
     0
102
RTVSPost2010PropOp36
 70
     1
102
RTVSPost2010Prop37
 90
       50
102
RTVSPost2010PropOp37
 70
     1
102
RTVSPost2010Prop38
140
0.0
102
RTVSPost2010PropOp38
 70
     1
102
RTVSPost2010Prop39
140
1.0
102
RTVSPost2010PropOp39
 70
     1
102
RTVSPost2010Prop40
 90
        0
102
RTVSPost2010PropOp40
 70
     1
102
RTVSPost2010Prop41ColorIndex
 90
       18
102
RTVSPost2010Prop41ColorRGB
 90
        0
102
RTVSPost2010PropOp41
 70
     1
102
RTVSPost2010Prop42
 90
       50
102
RTVSPost2010PropOp42
 70
     1
102
RTVSPost2010Prop43
 90
        3
102
RTVSPost2010PropOp43
 70
     1
102
RTVSPost2010Prop44ColorIndex
 90
        5
102
RTVSPost2010Prop44ColorRGB
 90
      255
102
RTVSPost2010PropOp44
 70
     1
102
RTVSPost2010Prop45
280
     0
102
RTVSPost2010PropOp45
 70
     1
102
RTVSPost2010Prop46
 90
       50
102
RTVSPost2010PropOp46
 70
     1
102
RTVSPost2010Prop47
 90
       50
102
RTVSPost2010PropOp47
 70
     1
102
RTVSPost2010Prop48
 90
       50
102
RTVSPost2010PropOp48
 70
     1
102
RTVSPost2010Prop49
280
     0
102
RTVSPost2010PropOp49
 70
     1
102
RTVSPost2010Prop50
 90
       50
102
RTVSPost2010PropOp50
 70
     1
102
RTVSPost2010Prop51ColorIndex
 90
      256
102
RTVSPost2010Prop51ColorRGB
 90
-16777216
102
RTVSPost2010PropOp51
 70
     0
102
RTVSPost2010Prop52
140
1.0
102
RTVSPost2010PropOp52
 70
     0
102
RTVSPost2010Prop53
 90
        2
102
RTVSPost2010PropOp53
 70
     1
102
RTVSPost2010Prop54
  1
strokes_ogs.tif
102
RTVSPost2010PropOp54
 70
     1
102
RTVSPost2010Prop55
280
     0
102
RTVSPost2010PropOp55
 70
     1
102
RTVSPost2010Prop56
140
1.0
102
RTVSPost2010PropOp56
 70
     1
102
RTVSPost2010Prop57
140
1.0
102
RTVSPost2010PropOp57
 70
     1
  0
XRECORD
  5
1DD14
102
{ACAD_REACTORS
330
1DD13
102
}
330
1DD13
100
AcDbXrecord
280
     1
102
RTVSPost2010Prop28
280
     0
102
RTVSPost2010PropOp28
 70
     1
102
RTVSPost2010Prop29
280
     1
102
RTVSPost2010PropOp29
 70
     1
102
RTVSPost2010Prop30
280
     1
102
RTVSPost2010PropOp30
 70
     1
102
RTVSPost2010Prop31
280
     0
102
RTVSPost2010PropOp31
 70
     1
102
RTVSPost2010Prop32
280
     0
102
RTVSPost2010PropOp32
 70
     1
102
RTVSPost2010Prop33
280
     0
102
RTVSPost2010PropOp33
 70
     1
102
RTVSPost2010Prop34
280
     0
102
RTVSPost2010PropOp34
 70
     1
102
RTVSPost2010Prop35
280
     0
102
RTVSPost2010PropOp35
 70
     1
102
RTVSPost2010Prop36
280
     0
102
RTVSPost2010PropOp36
 70
     1
102
RTVSPost2010Prop37
 90
       50
102
RTVSPost2010PropOp37
 70
     1
102
RTVSPost2010Prop38
140
0.0
102
RTVSPost2010PropOp38
 70
     1
102
RTVSPost2010Prop39
140
1.0
102
RTVSPost2010PropOp39
 70
     1
102
RTVSPost2010Prop40
 90
        0
102
RTVSPost2010PropOp40
 70
     1
102
RTVSPost2010Prop41ColorIndex
 90
       18
102
RTVSPost2010Prop41ColorRGB
 90
        0
102
RTVSPost2010PropOp41
 70
     1
102
RTVSPost2010Prop42
 90
       50
102
RTVSPost2010PropOp42
 70
     1
102
RTVSPost2010Prop43
 90
        3
102
RTVSPost2010PropOp43
 70
     1
102
RTVSPost2010Prop44ColorIndex
 90
        5
102
RTVSPost2010Prop44ColorRGB
 90
      255
102
RTVSPost2010PropOp44
 70
     1
102
RTVSPost2010Prop45
280
     0
102
RTVSPost2010PropOp45
 70
     1
102
RTVSPost2010Prop46
 90
       50
102
RTVSPost2010PropOp46
 70
     1
102
RTVSPost2010Prop47
 90
       50
102
RTVSPost2010PropOp47
 70
     1
102
RTVSPost2010Prop48
 90
       50
102
RTVSPost2010PropOp48
 70
     1
102
RTVSPost2010Prop49
280
     0
102
RTVSPost2010PropOp49
 70
     1
102
RTVSPost2010Prop50
 90
       50
102
RTVSPost2010PropOp50
 70
     1
102
RTVSPost2010Prop51ColorIndex
 90
      256
102
RTVSPost2010Prop51ColorRGB
 90
-16777216
102
RTVSPost2010PropOp51
 70
     0
102
RTVSPost2010Prop52
140
1.0
102
RTVSPost2010PropOp52
 70
     0
102
RTVSPost2010Prop53
 90
        2
102
RTVSPost2010PropOp53
 70
     1
102
RTVSPost2010Prop54
  1
strokes_ogs.tif
102
RTVSPost2010PropOp54
 70
     1
102
RTVSPost2010Prop55
280
     0
102
RTVSPost2010PropOp55
 70
     1
102
RTVSPost2010Prop56
140
1.0
102
RTVSPost2010PropOp56
 70
     1
102
RTVSPost2010Prop57
140
1.0
102
RTVSPost2010PropOp57
 70
     1
  0
XRECORD
  5
1DD16
102
{ACAD_REACTORS
330
1DD15
102
}
330
1DD15
100
AcDbXrecord
280
     1
102
RTVSPost2010Prop28
280
     0
102
RTVSPost2010PropOp28
 70
     1
102
RTVSPost2010Prop29
280
     1
102
RTVSPost2010PropOp29
 70
     1
102
RTVSPost2010Prop30
280
     1
102
RTVSPost2010PropOp30
 70
     1
102
RTVSPost2010Prop31
280
     0
102
RTVSPost2010PropOp31
 70
     1
102
RTVSPost2010Prop32
280
     0
102
RTVSPost2010PropOp32
 70
     1
102
RTVSPost2010Prop33
280
     0
102
RTVSPost2010PropOp33
 70
     1
102
RTVSPost2010Prop34
280
     0
102
RTVSPost2010PropOp34
 70
     1
102
RTVSPost2010Prop35
280
     0
102
RTVSPost2010PropOp35
 70
     1
102
RTVSPost2010Prop36
280
     0
102
RTVSPost2010PropOp36
 70
     1
102
RTVSPost2010Prop37
 90
       50
102
RTVSPost2010PropOp37
 70
     1
102
RTVSPost2010Prop38
140
0.0
102
RTVSPost2010PropOp38
 70
     1
102
RTVSPost2010Prop39
140
1.0
102
RTVSPost2010PropOp39
 70
     1
102
RTVSPost2010Prop40
 90
        0
102
RTVSPost2010PropOp40
 70
     1
102
RTVSPost2010Prop41ColorIndex
 90
       18
102
RTVSPost2010Prop41ColorRGB
 90
        0
102
RTVSPost2010PropOp41
 70
     1
102
RTVSPost2010Prop42
 90
       50
102
RTVSPost2010PropOp42
 70
     1
102
RTVSPost2010Prop43
 90
        3
102
RTVSPost2010PropOp43
 70
     1
102
RTVSPost2010Prop44ColorIndex
 90
        5
102
RTVSPost2010Prop44ColorRGB
 90
      255
102
RTVSPost2010PropOp44
 70
     1
102
RTVSPost2010Prop45
280
     0
102
RTVSPost2010PropOp45
 70
     1
102
RTVSPost2010Prop46
 90
       50
102
RTVSPost2010PropOp46
 70
     1
102
RTVSPost2010Prop47
 90
       50
102
RTVSPost2010PropOp47
 70
     1
102
RTVSPost2010Prop48
 90
       50
102
RTVSPost2010PropOp48
 70
     1
102
RTVSPost2010Prop49
280
     0
102
RTVSPost2010PropOp49
 70
     1
102
RTVSPost2010Prop50
 90
       50
102
RTVSPost2010PropOp50
 70
     1
102
RTVSPost2010Prop51ColorIndex
 90
      256
102
RTVSPost2010Prop51ColorRGB
 90
-16777216
102
RTVSPost2010PropOp51
 70
     0
102
RTVSPost2010Prop52
140
1.0
102
RTVSPost2010PropOp52
 70
     0
102
RTVSPost2010Prop53
 90
        2
102
RTVSPost2010PropOp53
 70
     1
102
RTVSPost2010Prop54
  1
strokes_ogs.tif
102
RTVSPost2010PropOp54
 70
     1
102
RTVSPost2010Prop55
280
     0
102
RTVSPost2010PropOp55
 70
     1
102
RTVSPost2010Prop56
140
1.0
102
RTVSPost2010PropOp56
 70
     1
102
RTVSPost2010Prop57
140
1.0
102
RTVSPost2010PropOp57
 70
     1
  0
XRECORD
  5
1DD38
102
{ACAD_REACTORS
330
1DD37
102
}
330
1DD37
100
AcDbXrecord
280
     1
102
RTVSPost2010Prop28
280
     0
102
RTVSPost2010PropOp28
 70
     1
102
RTVSPost2010Prop29
280
     1
102
RTVSPost2010PropOp29
 70
     1
102
RTVSPost2010Prop30
280
     1
102
RTVSPost2010PropOp30
 70
     1
102
RTVSPost2010Prop31
280
     0
102
RTVSPost2010PropOp31
 70
     1
102
RTVSPost2010Prop32
280
     0
102
RTVSPost2010PropOp32
 70
     1
102
RTVSPost2010Prop33
280
     0
102
RTVSPost2010PropOp33
 70
     1
102
RTVSPost2010Prop34
280
     0
102
RTVSPost2010PropOp34
 70
     1
102
RTVSPost2010Prop35
280
     0
102
RTVSPost2010PropOp35
 70
     1
102
RTVSPost2010Prop36
280
     0
102
RTVSPost2010PropOp36
 70
     1
102
RTVSPost2010Prop37
 90
       50
102
RTVSPost2010PropOp37
 70
     1
102
RTVSPost2010Prop38
140
0.0
102
RTVSPost2010PropOp38
 70
     1
102
RTVSPost2010Prop39
140
1.0
102
RTVSPost2010PropOp39
 70
     1
102
RTVSPost2010Prop40
 90
        0
102
RTVSPost2010PropOp40
 70
     1
102
RTVSPost2010Prop41ColorIndex
 90
       18
102
RTVSPost2010Prop41ColorRGB
 90
        0
102
RTVSPost2010PropOp41
 70
     1
102
RTVSPost2010Prop42
 90
       50
102
RTVSPost2010PropOp42
 70
     1
102
RTVSPost2010Prop43
 90
        3
102
RTVSPost2010PropOp43
 70
     1
102
RTVSPost2010Prop44ColorIndex
 90
        5
102
RTVSPost2010Prop44ColorRGB
 90
      255
102
RTVSPost2010PropOp44
 70
     1
102
RTVSPost2010Prop45
280
     0
102
RTVSPost2010PropOp45
 70
     1
102
RTVSPost2010Prop46
 90
       50
102
RTVSPost2010PropOp46
 70
     1
102
RTVSPost2010Prop47
 90
       50
102
RTVSPost2010PropOp47
 70
     1
102
RTVSPost2010Prop48
 90
       50
102
RTVSPost2010PropOp48
 70
     1
102
RTVSPost2010Prop49
280
     0
102
RTVSPost2010PropOp49
 70
     1
102
RTVSPost2010Prop50
 90
       50
102
RTVSPost2010PropOp50
 70
     1
102
RTVSPost2010Prop51ColorIndex
 90
      256
102
RTVSPost2010Prop51ColorRGB
 90
-16777216
102
RTVSPost2010PropOp51
 70
     0
102
RTVSPost2010Prop52
140
1.0
102
RTVSPost2010PropOp52
 70
     0
102
RTVSPost2010Prop53
 90
        2
102
RTVSPost2010PropOp53
 70
     1
102
RTVSPost2010Prop54
  1
strokes_ogs.tif
102
RTVSPost2010PropOp54
 70
     1
102
RTVSPost2010Prop55
280
     0
102
RTVSPost2010PropOp55
 70
     1
102
RTVSPost2010Prop56
140
1.0
102
RTVSPost2010PropOp56
 70
     1
102
RTVSPost2010Prop57
140
1.0
102
RTVSPost2010PropOp57
 70
     1
  0
XRECORD
  5
1DD30
102
{ACAD_REACTORS
330
1DD2F
102
}
330
1DD2F
100
AcDbXrecord
280
     1
102
RTVSPost2010Prop28
280
     0
102
RTVSPost2010PropOp28
 70
     1
102
RTVSPost2010Prop29
280
     1
102
RTVSPost2010PropOp29
 70
     1
102
RTVSPost2010Prop30
280
     1
102
RTVSPost2010PropOp30
 70
     1
102
RTVSPost2010Prop31
280
     0
102
RTVSPost2010PropOp31
 70
     1
102
RTVSPost2010Prop32
280
     0
102
RTVSPost2010PropOp32
 70
     1
102
RTVSPost2010Prop33
280
     0
102
RTVSPost2010PropOp33
 70
     1
102
RTVSPost2010Prop34
280
     0
102
RTVSPost2010PropOp34
 70
     1
102
RTVSPost2010Prop35
280
     0
102
RTVSPost2010PropOp35
 70
     1
102
RTVSPost2010Prop36
280
     0
102
RTVSPost2010PropOp36
 70
     1
102
RTVSPost2010Prop37
 90
       50
102
RTVSPost2010PropOp37
 70
     1
102
RTVSPost2010Prop38
140
0.0
102
RTVSPost2010PropOp38
 70
     1
102
RTVSPost2010Prop39
140
1.0
102
RTVSPost2010PropOp39
 70
     1
102
RTVSPost2010Prop40
 90
        0
102
RTVSPost2010PropOp40
 70
     1
102
RTVSPost2010Prop41ColorIndex
 90
       18
102
RTVSPost2010Prop41ColorRGB
 90
        0
102
RTVSPost2010PropOp41
 70
     1
102
RTVSPost2010Prop42
 90
       50
102
RTVSPost2010PropOp42
 70
     1
102
RTVSPost2010Prop43
 90
        3
102
RTVSPost2010PropOp43
 70
     1
102
RTVSPost2010Prop44ColorIndex
 90
        5
102
RTVSPost2010Prop44ColorRGB
 90
      255
102
RTVSPost2010PropOp44
 70
     1
102
RTVSPost2010Prop45
280
     0
102
RTVSPost2010PropOp45
 70
     1
102
RTVSPost2010Prop46
 90
       50
102
RTVSPost2010PropOp46
 70
     1
102
RTVSPost2010Prop47
 90
       50
102
RTVSPost2010PropOp47
 70
     1
102
RTVSPost2010Prop48
 90
       50
102
RTVSPost2010PropOp48
 70
     1
102
RTVSPost2010Prop49
280
     0
102
RTVSPost2010PropOp49
 70
     1
102
RTVSPost2010Prop50
 90
       50
102
RTVSPost2010PropOp50
 70
     1
102
RTVSPost2010Prop51ColorIndex
 90
      256
102
RTVSPost2010Prop51ColorRGB
 90
-16777216
102
RTVSPost2010PropOp51
 70
     0
102
RTVSPost2010Prop52
140
1.0
102
RTVSPost2010PropOp52
 70
     0
102
RTVSPost2010Prop53
 90
        2
102
RTVSPost2010PropOp53
 70
     1
102
RTVSPost2010Prop54
  1
strokes_ogs.tif
102
RTVSPost2010PropOp54
 70
     1
102
RTVSPost2010Prop55
280
     0
102
RTVSPost2010PropOp55
 70
     1
102
RTVSPost2010Prop56
140
1.0
102
RTVSPost2010PropOp56
 70
     1
102
RTVSPost2010Prop57
140
1.0
102
RTVSPost2010PropOp57
 70
     1
  0
XRECORD
  5
1DD2A
102
{ACAD_REACTORS
330
1DD29
102
}
330
1DD29
100
AcDbXrecord
280
     1
102
RTVSPost2010Prop28
280
     0
102
RTVSPost2010PropOp28
 70
     1
102
RTVSPost2010Prop29
280
     1
102
RTVSPost2010PropOp29
 70
     1
102
RTVSPost2010Prop30
280
     1
102
RTVSPost2010PropOp30
 70
     1
102
RTVSPost2010Prop31
280
     0
102
RTVSPost2010PropOp31
 70
     1
102
RTVSPost2010Prop32
280
     0
102
RTVSPost2010PropOp32
 70
     1
102
RTVSPost2010Prop33
280
     0
102
RTVSPost2010PropOp33
 70
     1
102
RTVSPost2010Prop34
280
     0
102
RTVSPost2010PropOp34
 70
     1
102
RTVSPost2010Prop35
280
     0
102
RTVSPost2010PropOp35
 70
     1
102
RTVSPost2010Prop36
280
     0
102
RTVSPost2010PropOp36
 70
     1
102
RTVSPost2010Prop37
 90
       50
102
RTVSPost2010PropOp37
 70
     1
102
RTVSPost2010Prop38
140
0.0
102
RTVSPost2010PropOp38
 70
     1
102
RTVSPost2010Prop39
140
1.0
102
RTVSPost2010PropOp39
 70
     1
102
RTVSPost2010Prop40
 90
        0
102
RTVSPost2010PropOp40
 70
     1
102
RTVSPost2010Prop41ColorIndex
 90
       18
102
RTVSPost2010Prop41ColorRGB
 90
        0
102
RTVSPost2010PropOp41
 70
     1
102
RTVSPost2010Prop42
 90
       50
102
RTVSPost2010PropOp42
 70
     1
102
RTVSPost2010Prop43
 90
        3
102
RTVSPost2010PropOp43
 70
     1
102
RTVSPost2010Prop44ColorIndex
 90
        5
102
RTVSPost2010Prop44ColorRGB
 90
      255
102
RTVSPost2010PropOp44
 70
     1
102
RTVSPost2010Prop45
280
     0
102
RTVSPost2010PropOp45
 70
     1
102
RTVSPost2010Prop46
 90
       50
102
RTVSPost2010PropOp46
 70
     1
102
RTVSPost2010Prop47
 90
       50
102
RTVSPost2010PropOp47
 70
     1
102
RTVSPost2010Prop48
 90
       50
102
RTVSPost2010PropOp48
 70
     1
102
RTVSPost2010Prop49
280
     0
102
RTVSPost2010PropOp49
 70
     1
102
RTVSPost2010Prop50
 90
       50
102
RTVSPost2010PropOp50
 70
     1
102
RTVSPost2010Prop51ColorIndex
 90
      256
102
RTVSPost2010Prop51ColorRGB
 90
-16777216
102
RTVSPost2010PropOp51
 70
     0
102
RTVSPost2010Prop52
140
1.0
102
RTVSPost2010PropOp52
 70
     0
102
RTVSPost2010Prop53
 90
        2
102
RTVSPost2010PropOp53
 70
     1
102
RTVSPost2010Prop54
  1
strokes_ogs.tif
102
RTVSPost2010PropOp54
 70
     1
102
RTVSPost2010Prop55
280
     0
102
RTVSPost2010PropOp55
 70
     1
102
RTVSPost2010Prop56
140
1.0
102
RTVSPost2010PropOp56
 70
     1
102
RTVSPost2010Prop57
140
1.0
102
RTVSPost2010PropOp57
 70
     1
  0
XRECORD
  5
1DD32
102
{ACAD_REACTORS
330
1DD31
102
}
330
1DD31
100
AcDbXrecord
280
     1
102
RTVSPost2010Prop28
280
     0
102
RTVSPost2010PropOp28
 70
     1
102
RTVSPost2010Prop29
280
     1
102
RTVSPost2010PropOp29
 70
     1
102
RTVSPost2010Prop30
280
     1
102
RTVSPost2010PropOp30
 70
     1
102
RTVSPost2010Prop31
280
     0
102
RTVSPost2010PropOp31
 70
     1
102
RTVSPost2010Prop32
280
     0
102
RTVSPost2010PropOp32
 70
     1
102
RTVSPost2010Prop33
280
     0
102
RTVSPost2010PropOp33
 70
     1
102
RTVSPost2010Prop34
280
     0
102
RTVSPost2010PropOp34
 70
     1
102
RTVSPost2010Prop35
280
     0
102
RTVSPost2010PropOp35
 70
     1
102
RTVSPost2010Prop36
280
     0
102
RTVSPost2010PropOp36
 70
     1
102
RTVSPost2010Prop37
 90
       50
102
RTVSPost2010PropOp37
 70
     1
102
RTVSPost2010Prop38
140
0.0
102
RTVSPost2010PropOp38
 70
     1
102
RTVSPost2010Prop39
140
1.0
102
RTVSPost2010PropOp39
 70
     1
102
RTVSPost2010Prop40
 90
        0
102
RTVSPost2010PropOp40
 70
     1
102
RTVSPost2010Prop41ColorIndex
 90
       18
102
RTVSPost2010Prop41ColorRGB
 90
        0
102
RTVSPost2010PropOp41
 70
     1
102
RTVSPost2010Prop42
 90
       50
102
RTVSPost2010PropOp42
 70
     1
102
RTVSPost2010Prop43
 90
        3
102
RTVSPost2010PropOp43
 70
     1
102
RTVSPost2010Prop44ColorIndex
 90
        5
102
RTVSPost2010Prop44ColorRGB
 90
      255
102
RTVSPost2010PropOp44
 70
     1
102
RTVSPost2010Prop45
280
     0
102
RTVSPost2010PropOp45
 70
     1
102
RTVSPost2010Prop46
 90
       50
102
RTVSPost2010PropOp46
 70
     1
102
RTVSPost2010Prop47
 90
       50
102
RTVSPost2010PropOp47
 70
     1
102
RTVSPost2010Prop48
 90
       50
102
RTVSPost2010PropOp48
 70
     1
102
RTVSPost2010Prop49
280
     0
102
RTVSPost2010PropOp49
 70
     1
102
RTVSPost2010Prop50
 90
       50
102
RTVSPost2010PropOp50
 70
     1
102
RTVSPost2010Prop51ColorIndex
 90
      256
102
RTVSPost2010Prop51ColorRGB
 90
-16777216
102
RTVSPost2010PropOp51
 70
     0
102
RTVSPost2010Prop52
140
1.0
102
RTVSPost2010PropOp52
 70
     0
102
RTVSPost2010Prop53
 90
        2
102
RTVSPost2010PropOp53
 70
     1
102
RTVSPost2010Prop54
  1
strokes_ogs.tif
102
RTVSPost2010PropOp54
 70
     1
102
RTVSPost2010Prop55
280
     0
102
RTVSPost2010PropOp55
 70
     1
102
RTVSPost2010Prop56
140
1.0
102
RTVSPost2010PropOp56
 70
     1
102
RTVSPost2010Prop57
140
1.0
102
RTVSPost2010PropOp57
 70
     1
  0
XRECORD
  5
1DD22
102
{ACAD_REACTORS
330
1DD21
102
}
330
1DD21
100
AcDbXrecord
280
     1
102
RTVSPost2010Prop28
280
     0
102
RTVSPost2010PropOp28
 70
     1
102
RTVSPost2010Prop29
280
     1
102
RTVSPost2010PropOp29
 70
     1
102
RTVSPost2010Prop30
280
     1
102
RTVSPost2010PropOp30
 70
     1
102
RTVSPost2010Prop31
280
     0
102
RTVSPost2010PropOp31
 70
     1
102
RTVSPost2010Prop32
280
     0
102
RTVSPost2010PropOp32
 70
     1
102
RTVSPost2010Prop33
280
     0
102
RTVSPost2010PropOp33
 70
     1
102
RTVSPost2010Prop34
280
     0
102
RTVSPost2010PropOp34
 70
     1
102
RTVSPost2010Prop35
280
     0
102
RTVSPost2010PropOp35
 70
     1
102
RTVSPost2010Prop36
280
     0
102
RTVSPost2010PropOp36
 70
     1
102
RTVSPost2010Prop37
 90
       50
102
RTVSPost2010PropOp37
 70
     1
102
RTVSPost2010Prop38
140
0.0
102
RTVSPost2010PropOp38
 70
     1
102
RTVSPost2010Prop39
140
1.0
102
RTVSPost2010PropOp39
 70
     1
102
RTVSPost2010Prop40
 90
        0
102
RTVSPost2010PropOp40
 70
     1
102
RTVSPost2010Prop41ColorIndex
 90
       18
102
RTVSPost2010Prop41ColorRGB
 90
        0
102
RTVSPost2010PropOp41
 70
     1
102
RTVSPost2010Prop42
 90
       50
102
RTVSPost2010PropOp42
 70
     1
102
RTVSPost2010Prop43
 90
        3
102
RTVSPost2010PropOp43
 70
     1
102
RTVSPost2010Prop44ColorIndex
 90
        5
102
RTVSPost2010Prop44ColorRGB
 90
      255
102
RTVSPost2010PropOp44
 70
     1
102
RTVSPost2010Prop45
280
     0
102
RTVSPost2010PropOp45
 70
     1
102
RTVSPost2010Prop46
 90
       50
102
RTVSPost2010PropOp46
 70
     1
102
RTVSPost2010Prop47
 90
       50
102
RTVSPost2010PropOp47
 70
     1
102
RTVSPost2010Prop48
 90
       50
102
RTVSPost2010PropOp48
 70
     1
102
RTVSPost2010Prop49
280
     0
102
RTVSPost2010PropOp49
 70
     1
102
RTVSPost2010Prop50
 90
       50
102
RTVSPost2010PropOp50
 70
     1
102
RTVSPost2010Prop51ColorIndex
 90
      256
102
RTVSPost2010Prop51ColorRGB
 90
-16777216
102
RTVSPost2010PropOp51
 70
     0
102
RTVSPost2010Prop52
140
1.0
102
RTVSPost2010PropOp52
 70
     0
102
RTVSPost2010Prop53
 90
        2
102
RTVSPost2010PropOp53
 70
     1
102
RTVSPost2010Prop54
  1
strokes_ogs.tif
102
RTVSPost2010PropOp54
 70
     1
102
RTVSPost2010Prop55
280
     0
102
RTVSPost2010PropOp55
 70
     1
102
RTVSPost2010Prop56
140
1.0
102
RTVSPost2010PropOp56
 70
     1
102
RTVSPost2010Prop57
140
1.0
102
RTVSPost2010PropOp57
 70
     1
  0
XRECORD
  5
1DD42
102
{ACAD_REACTORS
330
1DD41
102
}
330
1DD41
100
AcDbXrecord
280
     1
102
RTVSPost2010Prop28
280
     0
102
RTVSPost2010PropOp28
 70
     1
102
RTVSPost2010Prop29
280
     1
102
RTVSPost2010PropOp29
 70
     1
102
RTVSPost2010Prop30
280
     1
102
RTVSPost2010PropOp30
 70
     1
102
RTVSPost2010Prop31
280
     0
102
RTVSPost2010PropOp31
 70
     1
102
RTVSPost2010Prop32
280
     0
102
RTVSPost2010PropOp32
 70
     1
102
RTVSPost2010Prop33
280
     0
102
RTVSPost2010PropOp33
 70
     1
102
RTVSPost2010Prop34
280
     0
102
RTVSPost2010PropOp34
 70
     1
102
RTVSPost2010Prop35
280
     0
102
RTVSPost2010PropOp35
 70
     1
102
RTVSPost2010Prop36
280
     0
102
RTVSPost2010PropOp36
 70
     1
102
RTVSPost2010Prop37
 90
       50
102
RTVSPost2010PropOp37
 70
     1
102
RTVSPost2010Prop38
140
0.0
102
RTVSPost2010PropOp38
 70
     1
102
RTVSPost2010Prop39
140
1.0
102
RTVSPost2010PropOp39
 70
     1
102
RTVSPost2010Prop40
 90
        0
102
RTVSPost2010PropOp40
 70
     1
102
RTVSPost2010Prop41ColorIndex
 90
       18
102
RTVSPost2010Prop41ColorRGB
 90
        0
102
RTVSPost2010PropOp41
 70
     1
102
RTVSPost2010Prop42
 90
       50
102
RTVSPost2010PropOp42
 70
     1
102
RTVSPost2010Prop43
 90
        3
102
RTVSPost2010PropOp43
 70
     1
102
RTVSPost2010Prop44ColorIndex
 90
        5
102
RTVSPost2010Prop44ColorRGB
 90
      255
102
RTVSPost2010PropOp44
 70
     1
102
RTVSPost2010Prop45
280
     0
102
RTVSPost2010PropOp45
 70
     1
102
RTVSPost2010Prop46
 90
       50
102
RTVSPost2010PropOp46
 70
     1
102
RTVSPost2010Prop47
 90
       50
102
RTVSPost2010PropOp47
 70
     1
102
RTVSPost2010Prop48
 90
       50
102
RTVSPost2010PropOp48
 70
     1
102
RTVSPost2010Prop49
280
     0
102
RTVSPost2010PropOp49
 70
     1
102
RTVSPost2010Prop50
 90
       50
102
RTVSPost2010PropOp50
 70
     1
102
RTVSPost2010Prop51ColorIndex
 90
      256
102
RTVSPost2010Prop51ColorRGB
 90
-16777216
102
RTVSPost2010PropOp51
 70
     0
102
RTVSPost2010Prop52
140
1.0
102
RTVSPost2010PropOp52
 70
     0
102
RTVSPost2010Prop53
 90
        2
102
RTVSPost2010PropOp53
 70
     1
102
RTVSPost2010Prop54
  1
strokes_ogs.tif
102
RTVSPost2010PropOp54
 70
     1
102
RTVSPost2010Prop55
280
     0
102
RTVSPost2010PropOp55
 70
     1
102
RTVSPost2010Prop56
140
1.0
102
RTVSPost2010PropOp56
 70
     1
102
RTVSPost2010Prop57
140
1.0
102
RTVSPost2010PropOp57
 70
     1
  0
XRECORD
  5
1DD40
102
{ACAD_REACTORS
330
1DD3F
102
}
330
1DD3F
100
AcDbXrecord
280
     1
102
RTVSPost2010Prop28
280
     0
102
RTVSPost2010PropOp28
 70
     1
102
RTVSPost2010Prop29
280
     1
102
RTVSPost2010PropOp29
 70
     1
102
RTVSPost2010Prop30
280
     1
102
RTVSPost2010PropOp30
 70
     1
102
RTVSPost2010Prop31
280
     0
102
RTVSPost2010PropOp31
 70
     1
102
RTVSPost2010Prop32
280
     0
102
RTVSPost2010PropOp32
 70
     1
102
RTVSPost2010Prop33
280
     0
102
RTVSPost2010PropOp33
 70
     1
102
RTVSPost2010Prop34
280
     0
102
RTVSPost2010PropOp34
 70
     1
102
RTVSPost2010Prop35
280
     0
102
RTVSPost2010PropOp35
 70
     1
102
RTVSPost2010Prop36
280
     0
102
RTVSPost2010PropOp36
 70
     1
102
RTVSPost2010Prop37
 90
       50
102
RTVSPost2010PropOp37
 70
     1
102
RTVSPost2010Prop38
140
0.0
102
RTVSPost2010PropOp38
 70
     1
102
RTVSPost2010Prop39
140
1.0
102
RTVSPost2010PropOp39
 70
     1
102
RTVSPost2010Prop40
 90
        0
102
RTVSPost2010PropOp40
 70
     1
102
RTVSPost2010Prop41ColorIndex
 90
       18
102
RTVSPost2010Prop41ColorRGB
 90
        0
102
RTVSPost2010PropOp41
 70
     1
102
RTVSPost2010Prop42
 90
       50
102
RTVSPost2010PropOp42
 70
     1
102
RTVSPost2010Prop43
 90
        3
102
RTVSPost2010PropOp43
 70
     1
102
RTVSPost2010Prop44ColorIndex
 90
        5
102
RTVSPost2010Prop44ColorRGB
 90
      255
102
RTVSPost2010PropOp44
 70
     1
102
RTVSPost2010Prop45
280
     0
102
RTVSPost2010PropOp45
 70
     1
102
RTVSPost2010Prop46
 90
       50
102
RTVSPost2010PropOp46
 70
     1
102
RTVSPost2010Prop47
 90
       50
102
RTVSPost2010PropOp47
 70
     1
102
RTVSPost2010Prop48
 90
       50
102
RTVSPost2010PropOp48
 70
     1
102
RTVSPost2010Prop49
280
     0
102
RTVSPost2010PropOp49
 70
     1
102
RTVSPost2010Prop50
 90
       50
102
RTVSPost2010PropOp50
 70
     1
102
RTVSPost2010Prop51ColorIndex
 90
      256
102
RTVSPost2010Prop51ColorRGB
 90
-16777216
102
RTVSPost2010PropOp51
 70
     0
102
RTVSPost2010Prop52
140
1.0
102
RTVSPost2010PropOp52
 70
     0
102
RTVSPost2010Prop53
 90
        2
102
RTVSPost2010PropOp53
 70
     1
102
RTVSPost2010Prop54
  1
strokes_ogs.tif
102
RTVSPost2010PropOp54
 70
     1
102
RTVSPost2010Prop55
280
     0
102
RTVSPost2010PropOp55
 70
     1
102
RTVSPost2010Prop56
140
1.0
102
RTVSPost2010PropOp56
 70
     1
102
RTVSPost2010Prop57
140
1.0
102
RTVSPost2010PropOp57
 70
     1
  0
XRECORD
  5
1DD3A
102
{ACAD_REACTORS
330
1DD39
102
}
330
1DD39
100
AcDbXrecord
280
     1
102
RTVSPost2010Prop28
280
     0
102
RTVSPost2010PropOp28
 70
     1
102
RTVSPost2010Prop29
280
     1
102
RTVSPost2010PropOp29
 70
     1
102
RTVSPost2010Prop30
280
     1
102
RTVSPost2010PropOp30
 70
     1
102
RTVSPost2010Prop31
280
     0
102
RTVSPost2010PropOp31
 70
     1
102
RTVSPost2010Prop32
280
     0
102
RTVSPost2010PropOp32
 70
     1
102
RTVSPost2010Prop33
280
     0
102
RTVSPost2010PropOp33
 70
     1
102
RTVSPost2010Prop34
280
     0
102
RTVSPost2010PropOp34
 70
     1
102
RTVSPost2010Prop35
280
     0
102
RTVSPost2010PropOp35
 70
     1
102
RTVSPost2010Prop36
280
     0
102
RTVSPost2010PropOp36
 70
     1
102
RTVSPost2010Prop37
 90
       50
102
RTVSPost2010PropOp37
 70
     1
102
RTVSPost2010Prop38
140
0.0
102
RTVSPost2010PropOp38
 70
     1
102
RTVSPost2010Prop39
140
1.0
102
RTVSPost2010PropOp39
 70
     1
102
RTVSPost2010Prop40
 90
        0
102
RTVSPost2010PropOp40
 70
     1
102
RTVSPost2010Prop41ColorIndex
 90
       18
102
RTVSPost2010Prop41ColorRGB
 90
        0
102
RTVSPost2010PropOp41
 70
     1
102
RTVSPost2010Prop42
 90
       50
102
RTVSPost2010PropOp42
 70
     1
102
RTVSPost2010Prop43
 90
        3
102
RTVSPost2010PropOp43
 70
     1
102
RTVSPost2010Prop44ColorIndex
 90
        5
102
RTVSPost2010Prop44ColorRGB
 90
      255
102
RTVSPost2010PropOp44
 70
     1
102
RTVSPost2010Prop45
280
     0
102
RTVSPost2010PropOp45
 70
     1
102
RTVSPost2010Prop46
 90
       50
102
RTVSPost2010PropOp46
 70
     1
102
RTVSPost2010Prop47
 90
       50
102
RTVSPost2010PropOp47
 70
     1
102
RTVSPost2010Prop48
 90
       50
102
RTVSPost2010PropOp48
 70
     1
102
RTVSPost2010Prop49
280
     0
102
RTVSPost2010PropOp49
 70
     1
102
RTVSPost2010Prop50
 90
       50
102
RTVSPost2010PropOp50
 70
     1
102
RTVSPost2010Prop51ColorIndex
 90
      256
102
RTVSPost2010Prop51ColorRGB
 90
-16777216
102
RTVSPost2010PropOp51
 70
     0
102
RTVSPost2010Prop52
140
1.0
102
RTVSPost2010PropOp52
 70
     0
102
RTVSPost2010Prop53
 90
        2
102
RTVSPost2010PropOp53
 70
     1
102
RTVSPost2010Prop54
  1
strokes_ogs.tif
102
RTVSPost2010PropOp54
 70
     1
102
RTVSPost2010Prop55
280
     0
102
RTVSPost2010PropOp55
 70
     1
102
RTVSPost2010Prop56
140
1.0
102
RTVSPost2010PropOp56
 70
     1
102
RTVSPost2010Prop57
140
1.0
102
RTVSPost2010PropOp57
 70
     1
  0
XRECORD
  5
1DD3C
102
{ACAD_REACTORS
330
1DD3B
102
}
330
1DD3B
100
AcDbXrecord
280
     1
102
RTVSPost2010Prop28
280
     0
102
RTVSPost2010PropOp28
 70
     1
102
RTVSPost2010Prop29
280
     1
102
RTVSPost2010PropOp29
 70
     1
102
RTVSPost2010Prop30
280
     1
102
RTVSPost2010PropOp30
 70
     1
102
RTVSPost2010Prop31
280
     0
102
RTVSPost2010PropOp31
 70
     1
102
RTVSPost2010Prop32
280
     0
102
RTVSPost2010PropOp32
 70
     1
102
RTVSPost2010Prop33
280
     0
102
RTVSPost2010PropOp33
 70
     1
102
RTVSPost2010Prop34
280
     0
102
RTVSPost2010PropOp34
 70
     1
102
RTVSPost2010Prop35
280
     0
102
RTVSPost2010PropOp35
 70
     1
102
RTVSPost2010Prop36
280
     0
102
RTVSPost2010PropOp36
 70
     1
102
RTVSPost2010Prop37
 90
       50
102
RTVSPost2010PropOp37
 70
     1
102
RTVSPost2010Prop38
140
0.0
102
RTVSPost2010PropOp38
 70
     1
102
RTVSPost2010Prop39
140
1.0
102
RTVSPost2010PropOp39
 70
     1
102
RTVSPost2010Prop40
 90
        0
102
RTVSPost2010PropOp40
 70
     1
102
RTVSPost2010Prop41ColorIndex
 90
       18
102
RTVSPost2010Prop41ColorRGB
 90
        0
102
RTVSPost2010PropOp41
 70
     1
102
RTVSPost2010Prop42
 90
       50
102
RTVSPost2010PropOp42
 70
     1
102
RTVSPost2010Prop43
 90
        3
102
RTVSPost2010PropOp43
 70
     1
102
RTVSPost2010Prop44ColorIndex
 90
        5
102
RTVSPost2010Prop44ColorRGB
 90
      255
102
RTVSPost2010PropOp44
 70
     1
102
RTVSPost2010Prop45
280
     0
102
RTVSPost2010PropOp45
 70
     1
102
RTVSPost2010Prop46
 90
       50
102
RTVSPost2010PropOp46
 70
     1
102
RTVSPost2010Prop47
 90
       50
102
RTVSPost2010PropOp47
 70
     1
102
RTVSPost2010Prop48
 90
       50
102
RTVSPost2010PropOp48
 70
     1
102
RTVSPost2010Prop49
280
     0
102
RTVSPost2010PropOp49
 70
     1
102
RTVSPost2010Prop50
 90
       50
102
RTVSPost2010PropOp50
 70
     1
102
RTVSPost2010Prop51ColorIndex
 90
      256
102
RTVSPost2010Prop51ColorRGB
 90
-16777216
102
RTVSPost2010PropOp51
 70
     0
102
RTVSPost2010Prop52
140
1.0
102
RTVSPost2010PropOp52
 70
     0
102
RTVSPost2010Prop53
 90
        2
102
RTVSPost2010PropOp53
 70
     1
102
RTVSPost2010Prop54
  1
strokes_ogs.tif
102
RTVSPost2010PropOp54
 70
     1
102
RTVSPost2010Prop55
280
     0
102
RTVSPost2010PropOp55
 70
     1
102
RTVSPost2010Prop56
140
1.0
102
RTVSPost2010PropOp56
 70
     1
102
RTVSPost2010Prop57
140
1.0
102
RTVSPost2010PropOp57
 70
     1
  0
XRECORD
  5
1DD28
102
{ACAD_REACTORS
330
1DD27
102
}
330
1DD27
100
AcDbXrecord
280
     1
102
RTVSPost2010Prop28
280
     0
102
RTVSPost2010PropOp28
 70
     1
102
RTVSPost2010Prop29
280
     1
102
RTVSPost2010PropOp29
 70
     1
102
RTVSPost2010Prop30
280
     1
102
RTVSPost2010PropOp30
 70
     1
102
RTVSPost2010Prop31
280
     0
102
RTVSPost2010PropOp31
 70
     1
102
RTVSPost2010Prop32
280
     0
102
RTVSPost2010PropOp32
 70
     1
102
RTVSPost2010Prop33
280
     0
102
RTVSPost2010PropOp33
 70
     1
102
RTVSPost2010Prop34
280
     0
102
RTVSPost2010PropOp34
 70
     1
102
RTVSPost2010Prop35
280
     0
102
RTVSPost2010PropOp35
 70
     1
102
RTVSPost2010Prop36
280
     0
102
RTVSPost2010PropOp36
 70
     1
102
RTVSPost2010Prop37
 90
       50
102
RTVSPost2010PropOp37
 70
     1
102
RTVSPost2010Prop38
140
0.0
102
RTVSPost2010PropOp38
 70
     1
102
RTVSPost2010Prop39
140
1.0
102
RTVSPost2010PropOp39
 70
     1
102
RTVSPost2010Prop40
 90
        0
102
RTVSPost2010PropOp40
 70
     1
102
RTVSPost2010Prop41ColorIndex
 90
       18
102
RTVSPost2010Prop41ColorRGB
 90
        0
102
RTVSPost2010PropOp41
 70
     1
102
RTVSPost2010Prop42
 90
       50
102
RTVSPost2010PropOp42
 70
     1
102
RTVSPost2010Prop43
 90
        3
102
RTVSPost2010PropOp43
 70
     1
102
RTVSPost2010Prop44ColorIndex
 90
        5
102
RTVSPost2010Prop44ColorRGB
 90
      255
102
RTVSPost2010PropOp44
 70
     1
102
RTVSPost2010Prop45
280
     0
102
RTVSPost2010PropOp45
 70
     1
102
RTVSPost2010Prop46
 90
       50
102
RTVSPost2010PropOp46
 70
     1
102
RTVSPost2010Prop47
 90
       50
102
RTVSPost2010PropOp47
 70
     1
102
RTVSPost2010Prop48
 90
       50
102
RTVSPost2010PropOp48
 70
     1
102
RTVSPost2010Prop49
280
     0
102
RTVSPost2010PropOp49
 70
     1
102
RTVSPost2010Prop50
 90
       50
102
RTVSPost2010PropOp50
 70
     1
102
RTVSPost2010Prop51ColorIndex
 90
      256
102
RTVSPost2010Prop51ColorRGB
 90
-16777216
102
RTVSPost2010PropOp51
 70
     0
102
RTVSPost2010Prop52
140
1.0
102
RTVSPost2010PropOp52
 70
     0
102
RTVSPost2010Prop53
 90
        2
102
RTVSPost2010PropOp53
 70
     1
102
RTVSPost2010Prop54
  1
strokes_ogs.tif
102
RTVSPost2010PropOp54
 70
     1
102
RTVSPost2010Prop55
280
     0
102
RTVSPost2010PropOp55
 70
     1
102
RTVSPost2010Prop56
140
1.0
102
RTVSPost2010PropOp56
 70
     1
102
RTVSPost2010Prop57
140
1.0
102
RTVSPost2010PropOp57
 70
     1
  0
XRECORD
  5
1DD36
102
{ACAD_REACTORS
330
1DD35
102
}
330
1DD35
100
AcDbXrecord
280
     1
102
RTVSPost2010Prop28
280
     0
102
RTVSPost2010PropOp28
 70
     1
102
RTVSPost2010Prop29
280
     1
102
RTVSPost2010PropOp29
 70
     1
102
RTVSPost2010Prop30
280
     1
102
RTVSPost2010PropOp30
 70
     1
102
RTVSPost2010Prop31
280
     0
102
RTVSPost2010PropOp31
 70
     1
102
RTVSPost2010Prop32
280
     0
102
RTVSPost2010PropOp32
 70
     1
102
RTVSPost2010Prop33
280
     0
102
RTVSPost2010PropOp33
 70
     1
102
RTVSPost2010Prop34
280
     0
102
RTVSPost2010PropOp34
 70
     1
102
RTVSPost2010Prop35
280
     0
102
RTVSPost2010PropOp35
 70
     1
102
RTVSPost2010Prop36
280
     0
102
RTVSPost2010PropOp36
 70
     1
102
RTVSPost2010Prop37
 90
       50
102
RTVSPost2010PropOp37
 70
     1
102
RTVSPost2010Prop38
140
0.0
102
RTVSPost2010PropOp38
 70
     1
102
RTVSPost2010Prop39
140
1.0
102
RTVSPost2010PropOp39
 70
     1
102
RTVSPost2010Prop40
 90
        0
102
RTVSPost2010PropOp40
 70
     1
102
RTVSPost2010Prop41ColorIndex
 90
       18
102
RTVSPost2010Prop41ColorRGB
 90
        0
102
RTVSPost2010PropOp41
 70
     1
102
RTVSPost2010Prop42
 90
       50
102
RTVSPost2010PropOp42
 70
     1
102
RTVSPost2010Prop43
 90
        3
102
RTVSPost2010PropOp43
 70
     1
102
RTVSPost2010Prop44ColorIndex
 90
        5
102
RTVSPost2010Prop44ColorRGB
 90
      255
102
RTVSPost2010PropOp44
 70
     1
102
RTVSPost2010Prop45
280
     0
102
RTVSPost2010PropOp45
 70
     1
102
RTVSPost2010Prop46
 90
       50
102
RTVSPost2010PropOp46
 70
     1
102
RTVSPost2010Prop47
 90
       50
102
RTVSPost2010PropOp47
 70
     1
102
RTVSPost2010Prop48
 90
       50
102
RTVSPost2010PropOp48
 70
     1
102
RTVSPost2010Prop49
280
     0
102
RTVSPost2010PropOp49
 70
     1
102
RTVSPost2010Prop50
 90
       50
102
RTVSPost2010PropOp50
 70
     1
102
RTVSPost2010Prop51ColorIndex
 90
      256
102
RTVSPost2010Prop51ColorRGB
 90
-16777216
102
RTVSPost2010PropOp51
 70
     0
102
RTVSPost2010Prop52
140
1.0
102
RTVSPost2010PropOp52
 70
     0
102
RTVSPost2010Prop53
 90
        2
102
RTVSPost2010PropOp53
 70
     1
102
RTVSPost2010Prop54
  1
strokes_ogs.tif
102
RTVSPost2010PropOp54
 70
     1
102
RTVSPost2010Prop55
280
     0
102
RTVSPost2010PropOp55
 70
     1
102
RTVSPost2010Prop56
140
1.0
102
RTVSPost2010PropOp56
 70
     1
102
RTVSPost2010Prop57
140
1.0
102
RTVSPost2010PropOp57
 70
     1
  0
XRECORD
  5
1DD3E
102
{ACAD_REACTORS
330
1DD3D
102
}
330
1DD3D
100
AcDbXrecord
280
     1
102
RTVSPost2010Prop28
280
     0
102
RTVSPost2010PropOp28
 70
     1
102
RTVSPost2010Prop29
280
     1
102
RTVSPost2010PropOp29
 70
     1
102
RTVSPost2010Prop30
280
     1
102
RTVSPost2010PropOp30
 70
     1
102
RTVSPost2010Prop31
280
     0
102
RTVSPost2010PropOp31
 70
     1
102
RTVSPost2010Prop32
280
     0
102
RTVSPost2010PropOp32
 70
     1
102
RTVSPost2010Prop33
280
     0
102
RTVSPost2010PropOp33
 70
     1
102
RTVSPost2010Prop34
280
     0
102
RTVSPost2010PropOp34
 70
     1
102
RTVSPost2010Prop35
280
     0
102
RTVSPost2010PropOp35
 70
     1
102
RTVSPost2010Prop36
280
     0
102
RTVSPost2010PropOp36
 70
     1
102
RTVSPost2010Prop37
 90
       50
102
RTVSPost2010PropOp37
 70
     1
102
RTVSPost2010Prop38
140
0.0
102
RTVSPost2010PropOp38
 70
     1
102
RTVSPost2010Prop39
140
1.0
102
RTVSPost2010PropOp39
 70
     1
102
RTVSPost2010Prop40
 90
        0
102
RTVSPost2010PropOp40
 70
     1
102
RTVSPost2010Prop41ColorIndex
 90
       18
102
RTVSPost2010Prop41ColorRGB
 90
        0
102
RTVSPost2010PropOp41
 70
     1
102
RTVSPost2010Prop42
 90
       50
102
RTVSPost2010PropOp42
 70
     1
102
RTVSPost2010Prop43
 90
        3
102
RTVSPost2010PropOp43
 70
     1
102
RTVSPost2010Prop44ColorIndex
 90
        5
102
RTVSPost2010Prop44ColorRGB
 90
      255
102
RTVSPost2010PropOp44
 70
     1
102
RTVSPost2010Prop45
280
     0
102
RTVSPost2010PropOp45
 70
     1
102
RTVSPost2010Prop46
 90
       50
102
RTVSPost2010PropOp46
 70
     1
102
RTVSPost2010Prop47
 90
       50
102
RTVSPost2010PropOp47
 70
     1
102
RTVSPost2010Prop48
 90
       50
102
RTVSPost2010PropOp48
 70
     1
102
RTVSPost2010Prop49
280
     0
102
RTVSPost2010PropOp49
 70
     1
102
RTVSPost2010Prop50
 90
       50
102
RTVSPost2010PropOp50
 70
     1
102
RTVSPost2010Prop51ColorIndex
 90
      256
102
RTVSPost2010Prop51ColorRGB
 90
-16777216
102
RTVSPost2010PropOp51
 70
     0
102
RTVSPost2010Prop52
140
1.0
102
RTVSPost2010PropOp52
 70
     0
102
RTVSPost2010Prop53
 90
        2
102
RTVSPost2010PropOp53
 70
     1
102
RTVSPost2010Prop54
  1
strokes_ogs.tif
102
RTVSPost2010PropOp54
 70
     1
102
RTVSPost2010Prop55
280
     0
102
RTVSPost2010PropOp55
 70
     1
102
RTVSPost2010Prop56
140
1.0
102
RTVSPost2010PropOp56
 70
     1
102
RTVSPost2010Prop57
140
1.0
102
RTVSPost2010PropOp57
 70
     1
  0
ENDSEC
  0
EOF
