  0
SECTION
  2
HEADER
  9
$ACADVER
  1
AC1024
  9
$ACADMAINTVER
 70
   226
  9
$DWGCODEPAGE
  3
ANSI_1252
  9
$LASTSAVEDBY
  1
User
  9
$INSBASE
 10
0.0
 20
0.0
 30
0.0
  9
$EXTMIN
 10
27.11324013003937
 20
-0.6718758856671059
 30
-0.0015258207003583
  9
$EXTMAX
 10
113.3770193757159
 20
110.904489330826
 30
0.0000000349246037
  9
$LIMMIN
 10
-4.44220704448719
 20
-5.360222120439658
  9
$LIMMAX
 10
91.39604570949506
 20
115.4637810443593
  9
$ORTHOMODE
 70
     0
  9
$REGENMODE
 70
     1
  9
$FILLMODE
 70
     1
  9
$QTEXTMODE
 70
     0
  9
$MIRRTEXT
 70
     0
  9
$LTSCALE
 40
1.0
  9
$ATTMODE
 70
     1
  9
$TEXTSIZE
 40
1.0
  9
$TRACEWID
 40
0.05
  9
$TEXTSTYLE
  7
Logix
  9
$CLAYER
  8
Dim
  9
$CELTYPE
  6
ByLayer
  9
$CECOLOR
 62
   256
  9
$CELTSCALE
 40
1.0
  9
$DISPSILH
 70
     0
  9
$DIMSCALE
 40
1.0
  9
$DIMASZ
 40
0.75
  9
$DIMEXO
 40
0.5
  9
$DIMDLI
 40
0.38
  9
$DIMRND
 40
0.0
  9
$DIMDLE
 40
0.0
  9
$DIMEXE
 40
0.5
  9
$DIMTP
 40
0.0
  9
$DIMTM
 40
0.0
  9
$DIMTXT
 40
0.75
  9
$DIMCEN
 40
0.5
  9
$DIMTSZ
 40
0.0
  9
$DIMTOL
 70
     0
  9
$DIMLIM
 70
     0
  9
$DIMTIH
 70
     0
  9
$DIMTOH
 70
     1
  9
$DIMSE1
 70
     0
  9
$DIMSE2
 70
     0
  9
$DIMTAD
 70
     0
  9
$DIMZIN
 70
     0
  9
$DIMBLK
  1
ArchTick
  9
$DIMASO
 70
     1
  9
$DIMSHO
 70
     1
  9
$DIMPOST
  1
"\X
  9
$DIMAPOST
  1
mm
  9
$DIMALT
 70
     1
  9
$DIMALTD
 70
     0
  9
$DIMALTF
 40
25.4
  9
$DIMLFAC
 40
1.0
  9
$DIMTOFL
 70
     0
  9
$DIMTVP
 40
0.0
  9
$DIMTIX
 70
     0
  9
$DIMSOXD
 70
     0
  9
$DIMSAH
 70
     0
  9
$DIMBLK1
  1

  9
$DIMBLK2
  1

  9
$DIMSTYLE
  2
FBR
  9
$DIMCLRD
 70
     0
  9
$DIMCLRE
 70
     0
  9
$DIMCLRT
 70
     0
  9
$DIMTFAC
 40
1.0
  9
$DIMGAP
 40
0.09
  9
$DIMJUST
 70
     0
  9
$DIMSD1
 70
     0
  9
$DIMSD2
 70
     0
  9
$DIMTOLJ
 70
     1
  9
$DIMTZIN
 70
     0
  9
$DIMALTZ
 70
     0
  9
$DIMALTTZ
 70
     0
  9
$DIMUPT
 70
     0
  9
$DIMDEC
 70
     4
  9
$DIMTDEC
 70
     4
  9
$DIMALTU
 70
     2
  9
$DIMALTTD
 70
     0
  9
$DIMTXSTY
  7
Logix
  9
$DIMAUNIT
 70
     0
  9
$DIMADEC
 70
     0
  9
$DIMALTRND
 40
0.0
  9
$DIMAZIN
 70
     0
  9
$DIMDSEP
 70
    46
  9
$DIMATFIT
 70
     3
  9
$DIMFRAC
 70
     0
  9
$DIMLDRBLK
  1

  9
$DIMLUNIT
 70
     5
  9
$DIMLWD
 70
    -2
  9
$DIMLWE
 70
    -2
  9
$DIMTMOVE
 70
     0
  9
$DIMFXL
 40
0.18
  9
$DIMFXLON
 70
     0
  9
$DIMJOGANG
 40
0.7853981633974483
  9
$DIMTFILL
 70
     0
  9
$DIMTFILLCLR
 70
     0
  9
$DIMARCSYM
 70
     0
  9
$DIMLTYPE
  6

  9
$DIMLTEX1
  6

  9
$DIMLTEX2
  6

  9
$DIMTXTDIRECTION
 70
     0
  9
$LUNITS
 70
     2
  9
$LUPREC
 70
     4
  9
$SKETCHINC
 40
0.1
  9
$FILLETRAD
 40
0.0
  9
$AUNITS
 70
     0
  9
$AUPREC
 70
     0
  9
$MENU
  1
.
  9
$ELEVATION
 40
0.0
  9
$PELEVATION
 40
0.0
  9
$THICKNESS
 40
0.0
  9
$LIMCHECK
 70
     0
  9
$CHAMFERA
 40
0.0
  9
$CHAMFERB
 40
0.0
  9
$CHAMFERC
 40
0.0
  9
$CHAMFERD
 40
0.0
  9
$SKPOLY
 70
     0
  9
$TDCREATE
 40
2453607.697627315
  9
$TDUCREATE
 40
2453607.989301563
  9
$TDUPDATE
 40
2459662.954097222
  9
$TDUUPDATE
 40
2459663.245763889
  9
$TDINDWG
 40
1.4242772338
  9
$TDUSRTIMER
 40
1.4242772338
  9
$USRTIMER
 70
     1
  9
$ANGBASE
 50
0.0
  9
$ANGDIR
 70
     0
  9
$PDMODE
 70
     0
  9
$PDSIZE
 40
0.0
  9
$PLINEWID
 40
0.0
  9
$SPLFRAME
 70
     0
  9
$SPLINETYPE
 70
     6
  9
$SPLINESEGS
 70
     8
  9
$HANDSEED
  5
13E6A
  9
$SURFTAB1
 70
     6
  9
$SURFTAB2
 70
     6
  9
$SURFTYPE
 70
     6
  9
$SURFU
 70
     6
  9
$SURFV
 70
     6
  9
$UCSBASE
  2

  9
$UCSNAME
  2

  9
$UCSORG
 10
0.0
 20
0.0
 30
0.0
  9
$UCSXDIR
 10
1.0
 20
0.0
 30
0.0
  9
$UCSYDIR
 10
0.0
 20
1.0
 30
0.0
  9
$UCSORTHOREF
  2

  9
$UCSORTHOVIEW
 70
     0
  9
$UCSORGTOP
 10
0.0
 20
0.0
 30
0.0
  9
$UCSORGBOTTOM
 10
0.0
 20
0.0
 30
0.0
  9
$UCSORGLEFT
 10
0.0
 20
0.0
 30
0.0
  9
$UCSORGRIGHT
 10
0.0
 20
0.0
 30
0.0
  9
$UCSORGFRONT
 10
0.0
 20
0.0
 30
0.0
  9
$UCSORGBACK
 10
0.0
 20
0.0
 30
0.0
  9
$PUCSBASE
  2

  9
$PUCSNAME
  2

  9
$PUCSORG
 10
0.0
 20
0.0
 30
0.0
  9
$PUCSXDIR
 10
1.0
 20
0.0
 30
0.0
  9
$PUCSYDIR
 10
0.0
 20
1.0
 30
0.0
  9
$PUCSORTHOREF
  2

  9
$PUCSORTHOVIEW
 70
     0
  9
$PUCSORGTOP
 10
0.0
 20
0.0
 30
0.0
  9
$PUCSORGBOTTOM
 10
0.0
 20
0.0
 30
0.0
  9
$PUCSORGLEFT
 10
0.0
 20
0.0
 30
0.0
  9
$PUCSORGRIGHT
 10
0.0
 20
0.0
 30
0.0
  9
$PUCSORGFRONT
 10
0.0
 20
0.0
 30
0.0
  9
$PUCSORGBACK
 10
0.0
 20
0.0
 30
0.0
  9
$USERI1
 70
     0
  9
$USERI2
 70
     0
  9
$USERI3
 70
     0
  9
$USERI4
 70
     0
  9
$USERI5
 70
     0
  9
$USERR1
 40
0.0
  9
$USERR2
 40
0.0
  9
$USERR3
 40
0.0
  9
$USERR4
 40
0.0
  9
$USERR5
 40
0.0
  9
$WORLDVIEW
 70
     1
  9
$SHADEDGE
 70
     3
  9
$SHADEDIF
 70
    70
  9
$TILEMODE
 70
     1
  9
$MAXACTVP
 70
    64
  9
$PINSBASE
 10
0.0
 20
0.0
 30
0.0
  9
$PLIMCHECK
 70
     0
  9
$PEXTMIN
 10
1.049999952316284
 20
0.7999999523162842
 30
0.0
  9
$PEXTMAX
 10
9.449999570846555
 20
7.199999570846556
 30
0.0
  9
$PLIMMIN
 10
-0.2500002402958907
 20
-0.2499999962453767
  9
$PLIMMAX
 10
10.74999951940821
 20
8.249999763458731
  9
$UNITMODE
 70
     0
  9
$VISRETAIN
 70
     1
  9
$PLINEGEN
 70
     0
  9
$PSLTSCALE
 70
     1
  9
$TREEDEPTH
 70
  3020
  9
$CMLSTYLE
  2
Standard
  9
$CMLJUST
 70
     0
  9
$CMLSCALE
 40
1.0
  9
$PROXYGRAPHICS
 70
     1
  9
$MEASUREMENT
 70
     0
  9
$CELWEIGHT
370
    -1
  9
$ENDCAPS
280
     0
  9
$JOINSTYLE
280
     0
  9
$LWDISPLAY
290
     0
  9
$INSUNITS
 70
     1
  9
$HYPERLINKBASE
  1

  9
$STYLESHEET
  1
acad.ctb
  9
$XEDIT
290
     1
  9
$CEPSNTYPE
380
     0
  9
$PSTYLEMODE
290
     1
  9
$FINGERPRINTGUID
  2
{C454CA31-2497-4A48-9A62-B3C3862ED870}
  9
$VERSIONGUID
  2
{A59ACD91-2894-B14E-BB3A-B8E6F53D08D0}
  9
$EXTNAMES
290
     1
  9
$PSVPSCALE
 40
0.0
  9
$OLESTARTUP
290
     0
  9
$SORTENTS
280
   127
  9
$INDEXCTL
280
     0
  9
$HIDETEXT
280
     1
  9
$XCLIPFRAME
280
     0
  9
$HALOGAP
280
     0
  9
$OBSCOLOR
 70
   257
  9
$OBSLTYPE
280
     0
  9
$INTERSECTIONDISPLAY
280
     0
  9
$INTERSECTIONCOLOR
 70
   257
  9
$DIMASSOC
280
     2
  9
$PROJECTNAME
  1

  9
$CAMERADISPLAY
290
     0
  9
$LENSLENGTH
 40
50.0
  9
$CAMERAHEIGHT
 40
0.0
  9
$STEPSPERSEC
 40
2.0
  9
$STEPSIZE
 40
6.0
  9
$3DDWFPREC
 40
2.0
  9
$PSOLWIDTH
 40
0.25
  9
$PSOLHEIGHT
 40
4.0
  9
$LOFTANG1
 40
1.570796326794896
  9
$LOFTANG2
 40
1.570796326794896
  9
$LOFTMAG1
 40
0.0
  9
$LOFTMAG2
 40
0.0
  9
$LOFTPARAM
 70
     7
  9
$LOFTNORMALS
280
     1
  9
$LATITUDE
 40
37.795
  9
$LONGITUDE
 40
-122.394
  9
$NORTHDIRECTION
 40
0.0
  9
$TIMEZONE
 70
 -8000
  9
$LIGHTGLYPHDISPLAY
280
     1
  9
$TILEMODELIGHTSYNCH
280
     1
  9
$CMATERIAL
347
13CBA
  9
$SOLIDHIST
280
     1
  9
$SHOWHIST
280
     1
  9
$DWFFRAME
280
     2
  9
$DGNFRAME
280
     0
  9
$REALWORLDSCALE
290
     1
  9
$INTERFERECOLOR
 62
     1
  9
$INTERFEREOBJVS
345
13CDC
  9
$INTERFEREVPVS
346
13D81
  9
$CSHADOW
280
     0
  9
$SHADOWPLANELOCATION
 40
0.0
  0
ENDSEC
  0
SECTION
  2
CLASSES
  0
CLASS
  1
ACDBDICTIONARYWDFLT
  2
AcDbDictionaryWithDefault
  3
ObjectDBX Classes
 90
        0
 91
        1
280
     0
281
     0
  0
CLASS
  1
DICTIONARYVAR
  2
AcDbDictionaryVar
  3
ObjectDBX Classes
 90
        0
 91
       12
280
     0
281
     0
  0
CLASS
  1
TABLESTYLE
  2
AcDbTableStyle
  3
ObjectDBX Classes
 90
     4095
 91
        3
280
     0
281
     0
  0
CLASS
  1
DIMASSOC
  2
AcDbDimAssoc
  3
"AcDbDimAssoc|Product Desc:     AcDim ARX App For Dimension|Company:          Autodesk, Inc.|WEB Address:      www.autodesk.com"
 90
        0
 91
        8
280
     0
281
     0
  0
CLASS
  1
SORTENTSTABLE
  2
AcDbSortentsTable
  3
ObjectDBX Classes
 90
        0
 91
        1
280
     0
281
     0
  0
CLASS
  1
ACAD_TABLE
  2
AcDbTable
  3
ObjectDBX Classes
 90
     1025
 91
        0
280
     0
281
     1
  0
CLASS
  1
FIELD
  2
AcDbField
  3
ObjectDBX Classes
 90
     1152
 91
        0
280
     0
281
     0
  0
CLASS
  1
FIELDLIST
  2
AcDbFieldList
  3
ObjectDBX Classes
 90
     1152
 91
        1
280
     0
281
     0
  0
CLASS
  1
MATERIAL
  2
AcDbMaterial
  3
ObjectDBX Classes
 90
     1153
 91
        3
280
     0
281
     0
  0
CLASS
  1
VISUALSTYLE
  2
AcDbVisualStyle
  3
ObjectDBX Classes
 90
     4095
 91
       26
280
     0
281
     0
  0
CLASS
  1
SCALE
  2
AcDbScale
  3
ObjectDBX Classes
 90
     1153
 91
       33
280
     0
281
     0
  0
CLASS
  1
MLEADERSTYLE
  2
AcDbMLeaderStyle
  3
ACDB_MLEADERSTYLE_CLASS
 90
     4095
 91
        1
280
     0
281
     0
  0
CLASS
  1
ACAD_EVALUATION_GRAPH
  2
AcDbEvalGraph
  3
ObjectDBX Classes
 90
     1153
 91
        0
280
     0
281
     0
  0
CLASS
  1
ACAECUSTOBJ
  2
AcAeEditorObj
  3
AcAeEditorObj
 90
     1024
 91
        0
280
     0
281
     0
  0
CLASS
  1
ACDB_DYNAMICBLOCKPURGEPREVENTER_VERSION
  2
AcDbDynamicBlockPurgePreventer
  3
ObjectDBX Classes
 90
     1153
 91
        0
280
     0
281
     0
  0
CLASS
  1
CELLSTYLEMAP
  2
AcDbCellStyleMap
  3
ObjectDBX Classes
 90
     1152
 91
        3
280
     0
281
     0
  0
CLASS
  1
ACDBSECTIONVIEWSTYLE
  2
AcDbSectionViewStyle
  3
ObjectDBX Classes
 90
     1025
 91
        1
280
     0
281
     0
  0
CLASS
  1
ACDBDETAILVIEWSTYLE
  2
AcDbDetailViewStyle
  3
ObjectDBX Classes
 90
     1025
 91
        1
280
     0
281
     0
  0
CLASS
  1
ACDB_MTEXTOBJECTCONTEXTDATA_CLASS
  2
AcDbMTextObjectContextData
  3
ObjectDBX Classes
 90
     1153
 91
        1
280
     0
281
     0
  0
ENDSEC
  0
SECTION
  2
TABLES
  0
TABLE
  2
VPORT
  5
8
330
0
100
AcDbSymbolTable
 70
     1
  0
VPORT
  5
13CAB
330
8
100
AcDbSymbolTableRecord
100
AcDbViewportTableRecord
  2
*Active
 70
     0
 10
0.0
 20
0.0
 11
1.0
 21
1.0
 12
70.24512975287764
 22
55.11630672257945
 13
0.0
 23
0.0
 14
0.5
 24
0.5
 15
0.5
 25
0.5
 16
0.0
 26
0.0
 36
1.0
 17
0.0
 27
0.0
 37
0.0
 40
99.4217255810965
 41
2.565400843881856
 42
50.0
 43
0.0
 44
0.0
 50
0.0
 51
0.0
 71
     0
 72
  1000
 73
     1
 74
     3
 75
     0
 76
     0
 77
     0
 78
     0
281
     0
 65
     1
110
0.0
120
0.0
130
0.0
111
1.0
121
0.0
131
0.0
112
0.0
122
1.0
132
0.0
 79
     0
146
0.0
348
13CD8
 60
     3
 61
     5
292
     1
282
     1
141
0.0
142
0.0
 63
   250
421
  3355443
1001
ACAD_NAV_VCDISPLAY
1070
     3
  0
ENDTAB
  0
TABLE
  2
LTYPE
  5
5
330
0
100
AcDbSymbolTable
 70
     4
  0
LTYPE
  5
14
330
5
100
AcDbSymbolTableRecord
100
AcDbLinetypeTableRecord
  2
ByBlock
 70
     0
  3

 72
    65
 73
     0
 40
0.0
  0
LTYPE
  5
15
330
5
100
AcDbSymbolTableRecord
100
AcDbLinetypeTableRecord
  2
ByLayer
 70
     0
  3

 72
    65
 73
     0
 40
0.0
  0
LTYPE
  5
16
330
5
100
AcDbSymbolTableRecord
100
AcDbLinetypeTableRecord
  2
Continuous
 70
     0
  3
Solid line
 72
    65
 73
     0
 40
0.0
  0
LTYPE
  5
7BE
330
5
100
AcDbSymbolTableRecord
100
AcDbLinetypeTableRecord
  2
HIDDEN2
 70
     0
  3
Hidden (.5x) _ _ _ _ _ _ _ _ _ _ _ _ _ _ _ _ _
 72
    65
 73
     2
 40
0.1875
 49
0.125
 74
     0
 49
-0.0625
 74
     0
  0
LTYPE
  5
144B
330
5
100
AcDbSymbolTableRecord
100
AcDbLinetypeTableRecord
  2
HIDDEN
 70
     0
  3
Hidden __ __ __ __ __ __ __ __ __ __ __ __ __ _
 72
    65
 73
     2
 40
0.375
 49
0.25
 74
     0
 49
-0.125
 74
     0
  0
LTYPE
  5
129E7
330
5
100
AcDbSymbolTableRecord
100
AcDbLinetypeTableRecord
  2
CENTER2
 70
     0
  3
Center (.5x) ___ _ ___ _ ___ _ ___ _ ___ _ ___
 72
    65
 73
     4
 40
1.125
 49
0.75
 74
     0
 49
-0.125
 74
     0
 49
0.125
 74
     0
 49
-0.125
 74
     0
  0
ENDTAB
  0
TABLE
  2
LAYER
  5
2
102
{ACAD_XDICTIONARY
360
8D
102
}
330
0
100
AcDbSymbolTable
 70
    16
  0
LAYER
  5
10
102
{ACAD_XDICTIONARY
360
13D3C
102
}
330
2
100
AcDbSymbolTableRecord
100
AcDbLayerTableRecord
  2
0
 70
     0
 62
     7
  6
Continuous
370
    -3
390
F
347
13CCA
  0
LAYER
  5
8B
102
{ACAD_XDICTIONARY
360
13D3E
102
}
330
2
100
AcDbSymbolTableRecord
100
AcDbLayerTableRecord
  2
Block
 70
     0
 62
     1
  6
Continuous
370
    -3
390
F
347
13CCA
1001
AcAecLayerStandard
1000

1000

  0
LAYER
  5
413
102
{ACAD_XDICTIONARY
360
13D40
102
}
330
2
100
AcDbSymbolTableRecord
100
AcDbLayerTableRecord
  2
Knobs
 70
     0
 62
     1
  6
Continuous
370
    -3
390
F
347
13CCA
1001
AcAecLayerStandard
1000

1000

  0
LAYER
  5
770
102
{ACAD_XDICTIONARY
360
13D42
102
}
330
2
100
AcDbSymbolTableRecord
100
AcDbLayerTableRecord
  2
Web
 70
     0
 62
     6
  6
Continuous
370
    -3
390
F
347
13CCA
1001
AcAecLayerStandard
1000

1000

  0
LAYER
  5
E05
102
{ACAD_XDICTIONARY
360
13D44
102
}
330
2
100
AcDbSymbolTableRecord
100
AcDbLayerTableRecord
  2
Markers
 70
     0
 62
     1
  6
Continuous
370
    -3
390
F
347
13CCA
1001
AcAecLayerStandard
1000

1000

  0
LAYER
  5
13AF
102
{ACAD_XDICTIONARY
360
13D46
102
}
330
2
100
AcDbSymbolTableRecord
100
AcDbLayerTableRecord
  2
Dim
 70
     0
 62
     7
  6
Continuous
370
    -3
390
F
347
13CCA
1001
AcAecLayerStandard
1000

1000

  0
LAYER
  5
13CA
330
2
100
AcDbSymbolTableRecord
100
AcDbLayerTableRecord
  2
DEFPOINTS
 70
     0
 62
     7
  6
Continuous
290
     0
370
    -3
390
F
347
13CCA
  0
LAYER
  5
32CE
102
{ACAD_XDICTIONARY
360
13D48
102
}
330
2
100
AcDbSymbolTableRecord
100
AcDbLayerTableRecord
  2
Text
 70
     0
 62
     7
  6
Continuous
370
    -3
390
F
347
13CCA
1001
AcAecLayerStandard
1000

1000

  0
LAYER
  5
7B7D
102
{ACAD_XDICTIONARY
360
13D4A
102
}
330
2
100
AcDbSymbolTableRecord
100
AcDbLayerTableRecord
  2
RIBS
 70
     0
 62
     6
  6
Continuous
370
    -3
390
F
347
13CCA
  0
LAYER
  5
12725
102
{ACAD_XDICTIONARY
360
13D4C
102
}
330
2
100
AcDbSymbolTableRecord
100
AcDbLayerTableRecord
  2
wood
 70
     0
 62
    40
  6
Continuous
370
    -3
390
F
347
13CCA
1001
AcAecLayerStandard
1000

1000

  0
LAYER
  5
12726
102
{ACAD_XDICTIONARY
360
13D4E
102
}
330
2
100
AcDbSymbolTableRecord
100
AcDbLayerTableRecord
  2
drywall
 70
     0
 62
     7
  6
Continuous
370
    -3
390
F
347
13CCA
1001
AcAecLayerStandard
1000

1000

  0
LAYER
  5
1274D
102
{ACAD_XDICTIONARY
360
13D50
102
}
330
2
100
AcDbSymbolTableRecord
100
AcDbLayerTableRecord
  2
steel
 70
     0
 62
     5
  6
Continuous
370
    -3
390
F
347
13CCA
1001
AcAecLayerStandard
1000

1000

  0
LAYER
  5
12D64
102
{ACAD_XDICTIONARY
360
13D52
102
}
330
2
100
AcDbSymbolTableRecord
100
AcDbLayerTableRecord
  2
Grout
 70
     0
 62
     9
  6
Continuous
370
    -3
390
F
347
13CCA
1001
AcAecLayerStandard
1000

1000

  0
LAYER
  5
12D7E
102
{ACAD_XDICTIONARY
360
13D54
102
}
330
2
100
AcDbSymbolTableRecord
100
AcDbLayerTableRecord
  2
Conc
 70
     0
 62
   252
  6
Continuous
370
    -3
390
F
347
13CCA
1001
AcAecLayerStandard
1000

1000

  0
LAYER
  5
12F65
102
{ACAD_XDICTIONARY
360
13D56
102
}
330
2
100
AcDbSymbolTableRecord
100
AcDbLayerTableRecord
  2
Rebar
 70
     0
 62
     5
  6
Continuous
370
    -3
390
F
347
13CCA
1001
AcAecLayerStandard
1000

1000

  0
LAYER
  5
13DB8
102
{ACAD_XDICTIONARY
360
13DB9
102
}
330
2
100
AcDbSymbolTableRecord
100
AcDbLayerTableRecord
  2
Title Block
 70
     0
 62
     7
  6
Continuous
370
    -3
390
F
347
13CCA
1001
AcAecLayerStandard
1000

1000
Use for the title block on the layout tab (paper space)
  0
ENDTAB
  0
TABLE
  2
STYLE
  5
3
330
0
100
AcDbSymbolTable
 70
     5
  0
STYLE
  5
11
330
3
100
AcDbSymbolTableRecord
100
AcDbTextStyleTableRecord
  2
Standard
 70
     0
 40
0.0
 41
1.0
 50
0.0
 71
     0
 42
0.2
  3
sanss___.ttf
  4

1001
ACAD
1000
SansSerif
1071
      514
  0
STYLE
  5
7BD
330
3
100
AcDbSymbolTableRecord
100
AcDbTextStyleTableRecord
  2

 70
     1
 40
0.0
 41
1.0
 50
0.0
 71
     0
 42
0.2
  3
ltypeshp.shx
  4

  0
STYLE
  5
1A22
330
3
100
AcDbSymbolTableRecord
100
AcDbTextStyleTableRecord
  2
Logix
 70
     0
 40
0.0
 41
1.0
 50
0.0
 71
     0
 42
1.0
  3
romans.shx
  4

  0
STYLE
  5
36AA
330
3
100
AcDbSymbolTableRecord
100
AcDbTextStyleTableRecord
  2
Arial
 70
     0
 40
0.0
 41
1.0
 50
0.0
 71
     0
 42
0.2
  3
arial.ttf
  4

1001
ACAD
1000
Arial
1071
       34
  0
STYLE
  5
7B7E
330
3
100
AcDbSymbolTableRecord
100
AcDbTextStyleTableRecord
  2
TITLE
 70
     0
 40
0.0
 41
1.0
 50
0.0
 71
     0
 42
1.25
  3
arial.ttf
  4

1001
ACAD
1000
Arial
1071
       34
  0
ENDTAB
  0
TABLE
  2
VIEW
  5
6
330
0
100
AcDbSymbolTable
 70
     0
  0
ENDTAB
  0
TABLE
  2
UCS
  5
7
330
0
100
AcDbSymbolTable
 70
     0
  0
ENDTAB
  0
TABLE
  2
APPID
  5
9
330
0
100
AcDbSymbolTable
 70
    20
  0
APPID
  5
12
330
9
100
AcDbSymbolTableRecord
100
AcDbRegAppTableRecord
  2
ACAD
 70
     0
  0
APPID
  5
8C
330
9
100
AcDbSymbolTableRecord
100
AcDbRegAppTableRecord
  2
AcAecLayerStandard
 70
     0
  0
APPID
  5
93
330
9
100
AcDbSymbolTableRecord
100
AcDbRegAppTableRecord
  2
ACAD_EXEMPT_FROM_CAD_STANDARDS
 70
     0
  0
APPID
  5
B8
330
9
100
AcDbSymbolTableRecord
100
AcDbRegAppTableRecord
  2
ACAD_DSTYLE_DIMTEXT_FILL
 70
     0
  0
APPID
  5
B9
330
9
100
AcDbSymbolTableRecord
100
AcDbRegAppTableRecord
  2
ACAD_DSTYLE_DIMEXT_LENGTH
 70
     0
  0
APPID
  5
BA
330
9
100
AcDbSymbolTableRecord
100
AcDbRegAppTableRecord
  2
ACAD_DSTYLE_DIMEXT_ENABLED
 70
     0
  0
APPID
  5
BB
330
9
100
AcDbSymbolTableRecord
100
AcDbRegAppTableRecord
  2
ACAD_DSTYLE_DIM_LINETYPE
 70
     0
  0
APPID
  5
BC
330
9
100
AcDbSymbolTableRecord
100
AcDbRegAppTableRecord
  2
ACAD_DSTYLE_DIM_EXT1_LINETYPE
 70
     0
  0
APPID
  5
BD
330
9
100
AcDbSymbolTableRecord
100
AcDbRegAppTableRecord
  2
ACAD_DSTYLE_DIM_EXT2_LINETYPE
 70
     0
  0
APPID
  5
1D9
330
9
100
AcDbSymbolTableRecord
100
AcDbRegAppTableRecord
  2
ACAD_DSTYLE_DIMJOGGED_JOGANGLE_SYMBOL
 70
     0
  0
APPID
  5
26D
330
9
100
AcDbSymbolTableRecord
100
AcDbRegAppTableRecord
  2
ACAD_DSTYLE_DIMARC_LENGTH_SYMBOL
 70
     0
  0
APPID
  5
11EF9
330
9
100
AcDbSymbolTableRecord
100
AcDbRegAppTableRecord
  2
ACAD_PSEXT
 70
     0
  0
APPID
  5
13D07
330
9
100
AcDbSymbolTableRecord
100
AcDbRegAppTableRecord
  2
ACAD_MLEADERVER
 70
     0
  0
APPID
  5
13D18
330
9
100
AcDbSymbolTableRecord
100
AcDbRegAppTableRecord
  2
ACAUTHENVIRON
 70
     0
  0
APPID
  5
13D1C
330
9
100
AcDbSymbolTableRecord
100
AcDbRegAppTableRecord
  2
AcDbDynamicBlockTrueName
 70
     0
  0
APPID
  5
13D1D
330
9
100
AcDbSymbolTableRecord
100
AcDbRegAppTableRecord
  2
AcDbDynamicBlockGUID
 70
     0
  0
APPID
  5
13D1F
330
9
100
AcDbSymbolTableRecord
100
AcDbRegAppTableRecord
  2
AcDbBlockRepETag
 70
     0
  0
APPID
  5
13D98
330
9
100
AcDbSymbolTableRecord
100
AcDbRegAppTableRecord
  2
Acad_TC
 70
     0
  0
APPID
  5
13D9B
330
9
100
AcDbSymbolTableRecord
100
AcDbRegAppTableRecord
  2
ACAD_NAV_VCDISPLAY
 70
     0
  0
APPID
  5
13DBA
330
9
100
AcDbSymbolTableRecord
100
AcDbRegAppTableRecord
  2
AcadAnnotative
 70
     0
  0
ENDTAB
  0
TABLE
  2
DIMSTYLE
  5
A
330
0
100
AcDbSymbolTable
 70
     4
100
AcDbDimStyleTable
 71
     3
340
8CB7
340
272
340
27
  0
DIMSTYLE
105
27
330
A
100
AcDbSymbolTableRecord
100
AcDbDimStyleTableRecord
  2
Standard
 70
     0
340
11
  0
DIMSTYLE
105
272
330
A
100
AcDbSymbolTableRecord
100
AcDbDimStyleTableRecord
  2
$RECOVER_050824232520-0
 70
     0
  3
"
  4
mm
 41
0.75
 42
0.5
 44
0.5
 49
0.18
 73
     0
140
0.75
141
0.5
170
     1
277
     5
340
1A22
342
1723
1001
ACAD_DSTYLE_DIMJOGGED_JOGANGLE_SYMBOL
1070
   384
1040
0.7853981633974483
  0
DIMSTYLE
105
7B7F
330
A
100
AcDbSymbolTableRecord
100
AcDbDimStyleTableRecord
  2
neil
 70
     0
  3
"\X
  4
mm
 40
7.0
 41
0.15
 42
0.06
 44
0.0599999999999999
 45
0.0005
 73
     0
 74
     0
 77
     1
 78
     4
 79
     1
140
0.15
141
0.0
144
0.666666666666667
147
0.06
170
     1
171
     0
271
     3
272
     3
274
     0
276
     1
277
     5
340
11
341
1723
342
1723
  0
DIMSTYLE
105
8CB7
330
A
100
AcDbSymbolTableRecord
100
AcDbDimStyleTableRecord
  2
FBR
 70
     0
  3
"\X
  4
mm
 41
0.75
 42
0.5
 44
0.5
 49
0.18
 73
     0
140
0.75
141
0.5
170
     1
171
     0
274
     0
277
     5
340
1A22
342
1723
1001
ACAD_DSTYLE_DIMJOGGED_JOGANGLE_SYMBOL
1070
   384
1040
0.7853981633974483
  0
ENDTAB
  0
TABLE
  2
BLOCK_RECORD
  5
1
330
0
100
AcDbSymbolTable
 70
     5
  0
BLOCK_RECORD
  5
1F
102
{ACAD_XDICTIONARY
360
39A
102
}
330
1
100
AcDbSymbolTableRecord
100
AcDbBlockTableRecord
  2
*Model_Space
340
22
 70
     0
280
     1
281
     0
  0
BLOCK_RECORD
  5
5D
330
1
100
AcDbSymbolTableRecord
100
AcDbBlockTableRecord
  2
*Paper_Space
340
5E
 70
     0
280
     1
281
     0
  0
BLOCK_RECORD
  5
58
330
1
100
AcDbSymbolTableRecord
100
AcDbBlockTableRecord
  2
*Paper_Space0
340
59
 70
     0
280
     1
281
     0
  0
BLOCK_RECORD
  5
13CB
330
1
100
AcDbSymbolTableRecord
100
AcDbBlockTableRecord
  2
BRKLINE
340
0
 70
     0
280
     1
281
     0
  0
BLOCK_RECORD
  5
1723
330
1
100
AcDbSymbolTableRecord
100
AcDbBlockTableRecord
  2
_ArchTick
340
0
 70
     0
280
     1
281
     0
  0
BLOCK_RECORD
  5
7B6B
330
1
100
AcDbSymbolTableRecord
100
AcDbBlockTableRecord
  2
logo
340
0
310
2800000020000000200000000100080000000000000400000000000000000000000000000000000000000000000080000080000000808000800000008000800080800000C0C0C000C0DCC000F0CAA6000020400000206000002080000020A0000020C0000020E00000400000004020000040400000406000004080000040A0
310
000040C0000040E00000600000006020000060400000606000006080000060A0000060C0000060E00000800000008020000080400000806000008080000080A0000080C0000080E00000A0000000A0200000A0400000A0600000A0800000A0A00000A0C00000A0E00000C0000000C0200000C0400000C0600000C0800000C0
310
A00000C0C00000C0E00000E0000000E0200000E0400000E0600000E0800000E0A00000E0C00000E0E00040000000400020004000400040006000400080004000A0004000C0004000E00040200000402020004020400040206000402080004020A0004020C0004020E000404000004040200040404000404060004040800040
310
40A0004040C0004040E00040600000406020004060400040606000406080004060A0004060C0004060E00040800000408020004080400040806000408080004080A0004080C0004080E00040A0000040A0200040A0400040A0600040A0800040A0A00040A0C00040A0E00040C0000040C0200040C0400040C0600040C08000
310
40C0A00040C0C00040C0E00040E0000040E0200040E0400040E0600040E0800040E0A00040E0C00040E0E00080000000800020008000400080006000800080008000A0008000C0008000E00080200000802020008020400080206000802080008020A0008020C0008020E00080400000804020008040400080406000804080
310
008040A0008040C0008040E00080600000806020008060400080606000806080008060A0008060C0008060E00080800000808020008080400080806000808080008080A0008080C0008080E00080A0000080A0200080A0400080A0600080A0800080A0A00080A0C00080A0E00080C0000080C0200080C0400080C0600080C0
310
800080C0A00080C0C00080C0E00080E0000080E0200080E0400080E0600080E0800080E0A00080E0C00080E0E000C0000000C0002000C0004000C0006000C0008000C000A000C000C000C000E000C0200000C0202000C0204000C0206000C0208000C020A000C020C000C020E000C0400000C0402000C0404000C0406000C0
310
408000C040A000C040C000C040E000C0600000C0602000C0604000C0606000C0608000C060A000C060C000C060E000C0800000C0802000C0804000C0806000C0808000C080A000C080C000C080E000C0A00000C0A02000C0A04000C0A06000C0A08000C0A0A000C0A0C000C0A0E000C0C00000C0C02000C0C04000C0C06000
310
C0C08000C0C0A000F0FBFF00A4A0A000808080000000FF0000FF000000FFFF00FF000000FF00FF00FFFF0000FFFFFF0000000000000000000000000000000000000000000000000000000000000000000000000000000000000000000000000000000000000000000000000000000000000000000000000000000000000000
310
00000000000000000000000000000000000000000000000000000000000000000000000000000000000000000000000000000000000000000000000000000000000000000000000000000000000000000000000000000000000000000000000000000000000000000000000000000000000000000000000000000000000000
310
00000000000000000000000000000000000000000000000000000000000000000000000000000000000000000000000000000000000000000000000000000000000000000000000000000000000000000000000000000000000000000000000000000000000000000000000000000000000000000000000000000000000000
310
000000000000000000000000000000000000000000FFFFFFFFFFFFFFFFFFFFFFFFFFFFFFFFFFFFFFFFFFFFFFFFFFFFFF0000000000FFF9F9FFFFFFFFFFFFFFFFFFFFFFFFFFFFFFFFFFFFFFFFFFFFFFFF0000000000FFF9F9FFFFFFFFFFFFFFFFFF0000FFFFFFFFFFFFFFFF0000FFFF000000000000FFFFFFFFFFFFFFFFFFFF
310
FF00FFFFFFFFFFFFFFFF00FFFFFFFF000000000000000000FFFF0000FFFF000000FFFFFF00FFFFFFFFFF00FFFF00FF000000000000000000FFFF000000FFFF0000FFFFFFFFFFFFFFFFFF0000FFFF00000000000000000000FFFF000000FFFFFFFFFF00FFFFFFFFFFFFFF00FFFFFFFFFFFFFF000000000000FFFF00000000FF
310
FFFF000000FFFFFFFFFFFFFFFF00FFFFFFFFFF00000000000000000000000000000000000000000000F9F9000000000000000000000000000000000000000000000000000000000000F9F900000000000000000000000000000000000000000000000000000000000000000000000000000000000000000000000000000000
310
00000000000000000000000000000000000000000000000000000000000000000000000000000000000000000000000000000000000000000000000000000000000000000000000000000000000000000000000000000000000000000000000000000000000000000000000000000000000000000000000000000000000000
310
00000000000000000000000000000000000000000000000000000000000000000000000000000000000000000000000000000000000000000000000000000000000000000000000000000000000000000000000000000000000000000000000000000000000000000000000000000000000000000000000000000000000000
310
0000000000000000000000000000000000000000000000000000000000000000000000000000000000000000000000000000000000000000
102
{BLKREFS
331
13D14
102
}
 70
     1
280
     1
281
     0
  0
BLOCK_RECORD
  5
7B76
102
{ACAD_XDICTIONARY
360
13D19
102
}
330
1
100
AcDbSymbolTableRecord
100
AcDbBlockTableRecord
  2
logo1
340
0
310
2800000020000000200000000100080000000000000400000000000000000000000000000000000000000000000080000080000000808000800000008000800080800000C0C0C000C0DCC000F0CAA6000020400000206000002080000020A0000020C0000020E00000400000004020000040400000406000004080000040A0
310
000040C0000040E00000600000006020000060400000606000006080000060A0000060C0000060E00000800000008020000080400000806000008080000080A0000080C0000080E00000A0000000A0200000A0400000A0600000A0800000A0A00000A0C00000A0E00000C0000000C0200000C0400000C0600000C0800000C0
310
A00000C0C00000C0E00000E0000000E0200000E0400000E0600000E0800000E0A00000E0C00000E0E00040000000400020004000400040006000400080004000A0004000C0004000E00040200000402020004020400040206000402080004020A0004020C0004020E000404000004040200040404000404060004040800040
310
40A0004040C0004040E00040600000406020004060400040606000406080004060A0004060C0004060E00040800000408020004080400040806000408080004080A0004080C0004080E00040A0000040A0200040A0400040A0600040A0800040A0A00040A0C00040A0E00040C0000040C0200040C0400040C0600040C08000
310
40C0A00040C0C00040C0E00040E0000040E0200040E0400040E0600040E0800040E0A00040E0C00040E0E00080000000800020008000400080006000800080008000A0008000C0008000E00080200000802020008020400080206000802080008020A0008020C0008020E00080400000804020008040400080406000804080
310
008040A0008040C0008040E00080600000806020008060400080606000806080008060A0008060C0008060E00080800000808020008080400080806000808080008080A0008080C0008080E00080A0000080A0200080A0400080A0600080A0800080A0A00080A0C00080A0E00080C0000080C0200080C0400080C0600080C0
310
800080C0A00080C0C00080C0E00080E0000080E0200080E0400080E0600080E0800080E0A00080E0C00080E0E000C0000000C0002000C0004000C0006000C0008000C000A000C000C000C000E000C0200000C0202000C0204000C0206000C0208000C020A000C020C000C020E000C0400000C0402000C0404000C0406000C0
310
408000C040A000C040C000C040E000C0600000C0602000C0604000C0606000C0608000C060A000C060C000C060E000C0800000C0802000C0804000C0806000C0808000C080A000C080C000C080E000C0A00000C0A02000C0A04000C0A06000C0A08000C0A0A000C0A0C000C0A0E000C0C00000C0C02000C0C04000C0C06000
310
C0C08000C0C0A000F0FBFF00A4A0A000808080000000FF0000FF000000FFFF00FF000000FF00FF00FFFF0000FFFFFF0000000000000000000000000000000000000000000000000000000000000000000000000000000000000000000000000000000000000000000000000000000000000000000000000000000000000000
310
00000000000000000000000000000000000000000000000000000000000000000000000000000000000000000000000000000000000000000000000000000000000000000000000000000000000000000000000000000000000000000000000000000000000000000000000000000000000000000000000000000000000000
310
00000000000000000000000000000000000000000000000000000000000000000000000000000000000000000000000000000000000000000000000000000000000000000000000000000000000000000000000000000000000000000000000000000000000000000000000000000000000000000000000000000000000000
310
0000000000000000000000000000000000000000000000000000000000000000000000000000000000FFFFFFFFFFFFFFFF0000000000000000FFFFFFFFFFFFFFFFFFFFFFFFFFFFFFFFFFFFFFFFFFFFFFFF0000000000000000FFFFFFFFFF00FFFFFFFFFF00FFFFFFFFFFFFFFFF000000000000000000000000FFFFFFFFFFFF
310
FFFFFFFFFFFFFFFFFFFFFFFF0000000000000000000000000000F9F9FFFFFFFFFFFFFFFFFFFFFFFFFFFFFFFF0000000000000000000000000000FFFFFFFFFFFFFFFFFFFFFFFFFFFF00FFFFFF000000000000000000000000000000FFFF00FFFF00FFFFFFFFFFFFFF00FFFF00000000000000000000000000000000FFFF00FF
310
FFFF00FFFFFFFFFFFF00FF00FFFF0000000000000000000000000000FFFF00FFFFFFFF00FFFFFFF9F9FFFFFFFFFF00000000000000000000000000000000000000000000000000F9F9000000000000000000000000000000000000000000000000000000000000000000000000000000000000000000000000000000000000
310
00000000000000000000000000000000000000000000000000000000000000000000000000000000000000000000000000000000000000000000000000000000000000000000000000000000000000000000000000000000000000000000000000000000000000000000000000000000000000000000000000000000000000
310
00000000000000000000000000000000000000000000000000000000000000000000000000000000000000000000000000000000000000000000000000000000000000000000000000000000000000000000000000000000000000000000000000000000000000000000000000000000000000000000000000000000000000
310
0000000000000000000000000000000000000000000000000000000000000000000000000000000000000000000000000000000000000000
 70
     1
280
     1
281
     0
1001
AcDbDynamicBlockGUID
1000
{85DACB17-B51E-4BEF-AFEB-EA5369B18636}
1001
AcDbBlockRepETag
1070
     1
1071
        4
  0
ENDTAB
  0
ENDSEC
  0
SECTION
  2
BLOCKS
  0
BLOCK
  5
20
330
1F
100
AcDbEntity
  8
0
100
AcDbBlockBegin
  2
*Model_Space
 70
     0
 10
0.0
 20
0.0
 30
0.0
  3
*Model_Space
  1

  0
ENDBLK
  5
21
330
1F
100
AcDbEntity
  8
0
100
AcDbBlockEnd
  0
BLOCK
  5
5F
330
5D
100
AcDbEntity
 67
     1
  8
0
100
AcDbBlockBegin
  2
*Paper_Space
 70
     0
 10
0.0
 20
0.0
 30
0.0
  3
*Paper_Space
  1

  0
ENDBLK
  5
60
330
5D
100
AcDbEntity
 67
     1
  8
0
100
AcDbBlockEnd
  0
BLOCK
  5
5A
330
58
100
AcDbEntity
 67
     1
  8
0
100
AcDbBlockBegin
  2
*Paper_Space0
 70
     0
 10
0.0
 20
0.0
 30
0.0
  3
*Paper_Space0
  1

  0
VIEWPORT
  5
11EF8
330
58
100
AcDbEntity
 67
     1
  8
0
100
AcDbViewport
 10
5.249999639556163
 20
3.999999883606677
 30
0.0
 40
21.60469660038833
 41
8.992999745766947
 68
     0
 69
     0
 12
5.249999639556163
 22
3.999999883606677
 13
0.0
 23
0.0
 14
0.5
 24
0.5
 15
0.5
 25
0.5
 16
0.0
 26
0.0
 36
1.0
 17
0.0
 27
0.0
 37
0.0
 42
50.0
 43
0.0
 44
0.0
 45
8.992999745766947
 50
0.0
 51
0.0
 72
  1000
 90
    32800
  1

281
     0
 71
     1
 74
     0
110
0.0
120
0.0
130
0.0
111
1.0
121
0.0
131
0.0
112
0.0
122
1.0
132
0.0
 79
     0
146
0.0
170
     0
 61
     5
348
13CD8
292
     1
282
     1
141
0.0
142
0.0
 63
   250
421
  3355443
  0
VIEWPORT
  5
11EFB
330
58
100
AcDbEntity
 67
     1
  8
Dim
100
AcDbViewport
 10
5.24999976158142
 20
3.99999976158142
 30
0.0
 40
8.399999618530271
 41
6.399999618530272
 68
     0
 69
     0
 12
70.24570646213799
 22
55.11630672257945
 13
0.0
 23
0.0
 14
0.5
 24
0.5
 15
0.5
 25
0.5
 16
0.0
 26
0.0
 36
1.0
 17
0.0
 27
0.0
 37
0.0
 42
50.0
 43
0.0
 44
0.0
 45
113.4515982453417
 50
0.0
 51
0.0
 72
  1000
 90
    32864
  1

281
     0
 71
     1
 74
     0
110
0.0
120
0.0
130
0.0
111
1.0
121
0.0
131
0.0
112
0.0
122
1.0
132
0.0
 79
     0
146
0.0
170
     0
 61
     5
348
13CD8
292
     1
282
     1
141
0.0
142
0.0
 63
   250
421
  3355443
  0
ENDBLK
  5
5B
330
58
100
AcDbEntity
 67
     1
  8
0
100
AcDbBlockEnd
  0
BLOCK
  5
13CF
330
13CB
100
AcDbEntity
  8
0
100
AcDbBlockBegin
  2
BRKLINE
 70
     0
 10
0.0
 20
0.0
 30
0.0
  3
BRKLINE
  1

  0
LWPOLYLINE
  5
13CC
330
13CB
100
AcDbEntity
  8
0
100
AcDbPolyline
 90
        4
 70
     0
 43
0.0
 10
6.808656731150684
 20
3.512459941779828
 10
6.558656731150684
 20
4.199329296643485
 10
6.058656731150684
 20
2.825590586916172
 10
5.808656731150684
 20
3.512459941779828
  0
POINT
  5
13CD
330
13CB
100
AcDbEntity
  8
DEFPOINTS
100
AcDbPoint
 10
6.808656731150684
 20
3.512459941779828
 30
0.0
  0
POINT
  5
13CE
330
13CB
100
AcDbEntity
  8
DEFPOINTS
100
AcDbPoint
 10
5.808656731150684
 20
3.512459941779828
 30
0.0
  0
ENDBLK
  5
13D0
330
13CB
100
AcDbEntity
  8
0
100
AcDbBlockEnd
  0
BLOCK
  5
1725
330
1723
100
AcDbEntity
  8
0
100
AcDbBlockBegin
  2
_ArchTick
 70
     0
 10
0.0
 20
0.0
 30
0.0
  3
_ArchTick
  1

  0
LWPOLYLINE
  5
1724
330
1723
100
AcDbEntity
  8
0
  6
ByBlock
 62
     0
100
AcDbPolyline
 90
        2
 70
     0
 43
0.15
 10
-0.5
 20
-0.5
 10
0.5
 20
0.5
  0
ENDBLK
  5
1726
330
1723
100
AcDbEntity
  8
0
100
AcDbBlockEnd
  0
BLOCK
  5
7B6C
330
7B6B
100
AcDbEntity
  8
0
100
AcDbBlockBegin
  2
logo
 70
     0
 10
0.0
 20
0.0
 30
0.0
  3
logo
  1

  0
MTEXT
  5
7B6D
330
7B6B
100
AcDbEntity
  8
Text
100
AcDbMText
 10
221.086693675525
 20
7.073797073357269
 30
0.0
 40
4.125
 41
21.35400527714894
 46
0.0
 71
     5
 72
     5
  1
\fArial|b1|i0|c0|p34;LOGIX
 73
     1
 44
1.0
  0
LWPOLYLINE
  5
7B6E
330
7B6B
100
AcDbEntity
  8
Text
 62
    10
100
AcDbPolyline
 90
        4
 70
     1
 43
0.0
 10
225.1499332619207
 20
9.683728632982365
 10
224.7383820841952
 20
9.683728632982365
 10
224.7383820841952
 20
10.35291851038301
 10
225.1499332619207
 20
10.35291851038301
  0
HATCH
  5
7B6F
330
7B6B
100
AcDbEntity
  8
Text
 62
    10
100
AcDbHatch
 10
0.0
 20
0.0
 30
0.0
210
0.0
220
0.0
230
1.0
  2
SOLID
 70
     1
 71
     0
 91
        1
 92
        7
 72
     0
 73
     1
 93
        4
 10
225.5614844396461
 20
9.683728632982363
 10
225.5614844396461
 20
10.35291851038301
 10
224.7383820841953
 20
10.35291851038301
 10
224.7383820841953
 20
9.683728632982365
 97
        0
 75
     0
 76
     1
 47
0.0123602155066018
 98
        1
 10
225.7208762804179
 20
9.919538556040233
450
        0
451
        0
460
0.0
461
0.0
452
        0
462
0.0
453
        0
470

  0
TEXT
  5
7B70
330
7B6B
100
AcDbEntity
  8
Text
100
AcDbText
 10
216.1026506038589
 20
3.969685468766058
 30
0.0
 40
0.65625
  1
INSULATED CONCRETE FORMS
  7
TITLE
100
AcDbText
  0
LWPOLYLINE
  5
7B71
330
7B6B
100
AcDbEntity
  8
Text
100
AcDbPolyline
 90
        3
 70
     0
 43
0.38671875
 10
211.295228210912
 20
6.320133515475628
 10
211.295228210912
 20
4.138949166248082
 10
215.2000098659969
 20
4.138949166248082
  0
HATCH
  5
7B72
330
7B6B
100
AcDbEntity
  8
Text
 62
    10
100
AcDbHatch
 10
0.0
 20
0.0
 30
0.0
210
0.0
220
0.0
230
1.0
  2
SOLID
 70
     1
 71
     1
 91
        1
 92
        7
 72
     0
 73
     1
 93
        4
 10
212.339355867348
 20
4.353444358275677
 10
212.339355867348
 20
5.022634235676324
 10
211.5162535118971
 20
5.022634235676322
 10
211.5162535118971
 20
4.353444358275677
 97
        1
330
7B73
 75
     0
 76
     1
 47
0.0123602155066018
 98
        1
 10
212.0586078659991
 20
4.589254281333545
450
        0
451
        0
460
0.0
461
0.0
452
        0
462
0.0
453
        0
470

  0
LWPOLYLINE
  5
7B73
102
{ACAD_REACTORS
330
7B72
102
}
330
7B6B
100
AcDbEntity
  8
Text
 62
    10
100
AcDbPolyline
 90
        4
 70
     1
 43
0.0
 10
212.339355867348
 20
4.353444358275677
 10
211.5162535118971
 20
4.353444358275677
 10
211.5162535118971
 20
5.022634235676324
 10
212.339355867348
 20
5.022634235676324
  0
MTEXT
  5
7B74
330
7B6B
100
AcDbEntity
  8
Text
100
AcDbMText
 10
231.5267760865217
 20
9.129830932173035
 30
0.0
 40
1.0
 41
1.967384484442007
 46
0.0
 71
     3
 72
     5
  1
{\fArial|b1|i0|c0|p34;TM}
 73
     1
 44
1.0
  0
ENDBLK
  5
7B75
330
7B6B
100
AcDbEntity
  8
0
100
AcDbBlockEnd
  0
BLOCK
  5
7B77
330
7B76
100
AcDbEntity
  8
0
100
AcDbBlockBegin
  2
logo1
 70
     0
 10
0.0
 20
0.0
 30
0.0
  3
logo1
  1

  0
INSERT
  5
13D14
330
7B76
100
AcDbEntity
  8
Text
100
AcDbBlockReference
  2
logo
 10
0.2750878984697351
 20
1.429312710851462
 30
0.0
1001
AcDbBlockRepETag
1070
     1
1071
        0
1005
13D14
  0
MTEXT
  5
13D15
330
7B76
100
AcDbEntity
  8
Text
100
AcDbMText
 10
220.8462269722975
 20
3.419269878896534
 30
0.0
 40
1.5397913732992
 41
28.81904330094251
 46
0.0
 71
     5
 72
     5
  1
{\fArial|b1|i0|c0|p34;Good. Solid. Green.}
 73
     1
 44
1.0
1001
AcDbBlockRepETag
1070
     1
1071
        1
1005
13D15
  0
MTEXT
  5
13D16
330
7B76
100
AcDbEntity
  8
Text
100
AcDbMText
 10
231.9043748365881
 20
4.468802917119665
 30
0.0
 40
0.7698956866496004
 41
1.514680828553249
 46
0.0
 71
     3
 72
     5
  1
{\fArial|b1|i0|c0|p34;TM}
 73
     1
 44
1.0
1001
AcDbBlockRepETag
1070
     1
1071
        2
1005
13D16
  0
MTEXT
  5
13D17
330
7B76
100
AcDbEntity
  8
Text
100
AcDbMText
 10
229.1192517599591
 20
2.675911896170958
 30
0.0
 40
0.75
 41
8.36266296602462
 46
0.0
 71
     1
 72
     5
  1
www.logixicf.com
 73
     1
 44
1.0
1001
AcDbBlockRepETag
1070
     1
1071
        3
1005
13D17
  0
ENDBLK
  5
7B7C
330
7B76
100
AcDbEntity
  8
0
100
AcDbBlockEnd
  0
ENDSEC
  0
SECTION
  2
ENTITIES
  0
LWPOLYLINE
  5
7B6A
330
1F
100
AcDbEntity
  8
Dim
100
AcDbPolyline
 90
        4
 70
     1
 43
0.2
 10
27.21748254559107
 20
110.7962373936953
 10
113.2734236536866
 20
110.7962373936953
 10
113.2734236536866
 20
-0.5702746285459455
 10
27.21748254559107
 20
-0.5702746285459455
  0
LWPOLYLINE
  5
7B8A
330
1F
100
AcDbEntity
  8
Dim
100
AcDbPolyline
 90
        2
 70
     1
 43
0.2
 10
27.21748254559107
 20
11.21316310090452
 10
113.2734236536866
 20
11.21316310090452
  0
LWPOLYLINE
  5
7B8C
330
1F
100
AcDbEntity
  8
Dim
100
AcDbPolyline
 90
        2
 70
     0
 43
0.2
 10
46.55639506238067
 20
-0.5702746285459455
 10
46.55639506238067
 20
11.21316310090452
  0
MTEXT
  5
7B96
330
1F
100
AcDbEntity
  8
Text
100
AcDbMText
 10
47.3413562180187
 20
10.48942445696533
 30
0.0
 40
0.7125
 41
24.832833752633
 46
9.76950453337551
 71
     1
 72
     5
  3
{\fTimes New Roman|b0|i0|c0|p18;The drawing represented herein is to be used as a reference guide only;  the user shall check to ensure the drawing meets local building codes and construction practices by consulting local building officials and profe
  1
ssionals, including any additional requirements.  Logix reserves the right to make changes to the drawing without notice and assumes no liability in connection with the use of the drawing including modification, copying or distribution.}
 73
     1
 44
1.0
1001
ACAD
1000
ACAD_MTEXT_DEFINED_HEIGHT_BEGIN
1070
    46
1040
9.76950453337551
1000
ACAD_MTEXT_DEFINED_HEIGHT_END
  0
LWPOLYLINE
  5
7B97
330
1F
100
AcDbEntity
  8
Dim
100
AcDbPolyline
 90
        2
 70
     0
 43
0.2
 10
72.41481418920075
 20
-0.5702746285459455
 10
72.41481418920075
 20
11.21316310090452
  0
LWPOLYLINE
  5
7BA4
330
1F
100
AcDbEntity
  8
Dim
100
AcDbPolyline
 90
        2
 70
     0
 43
0.2
 10
72.55639506238067
 20
6.821444236179289
 10
113.2734236536866
 20
6.821444236179289
  0
LWPOLYLINE
  5
7BA5
330
1F
100
AcDbEntity
  8
Dim
100
AcDbPolyline
 90
        2
 70
     0
 43
0.2
 10
96.91490935803365
 20
6.821444236179289
 10
96.91490935803365
 20
11.21316310090452
  0
TEXT
  5
7BA7
330
1F
100
AcDbEntity
  8
Dim
100
AcDbText
 10
73.05639506238067
 20
8.234029020783879
 30
0.0
 40
1.0
  1
5.16.2.6
  7
Logix
100
AcDbText
  0
MTEXT
  5
7BA9
330
1F
100
AcDbEntity
  8
Dim
100
AcDbMText
 10
73.05639506238067
 20
10.71316310090452
 30
0.0
 40
0.75
 41
2.5
 46
0.9791340801206377
 71
     1
 72
     5
  1
Drawing:
  7
Logix
 73
     1
 44
1.0
1001
ACAD
1000
ACAD_MTEXT_DEFINED_HEIGHT_BEGIN
1070
    46
1040
0.9791340801206377
1000
ACAD_MTEXT_DEFINED_HEIGHT_END
  0
TEXT
  5
7BAB
330
1F
100
AcDbEntity
  8
Dim
100
AcDbText
 10
97.41490935803366
 20
8.234029020783879
 30
0.0
 40
1.0
  1
Oct 20/08
  7
Logix
100
AcDbText
  0
MTEXT
  5
7BAC
330
1F
100
AcDbEntity
  8
Dim
100
AcDbMText
 10
97.41490935803366
 20
10.71316310090452
 30
0.0
 40
0.75
 41
2.5
 46
0.9791340801206377
 71
     1
 72
     5
  1
Date:
  7
Logix
 73
     1
 44
1.0
1001
ACAD
1000
ACAD_MTEXT_DEFINED_HEIGHT_BEGIN
1070
    46
1040
0.9791340801206377
1000
ACAD_MTEXT_DEFINED_HEIGHT_END
  0
MTEXT
  5
7BAD
330
1F
100
AcDbEntity
  8
Dim
100
AcDbMText
 10
73.05639506238067
 20
6.321444236179289
 30
0.0
 40
0.75
 41
2.5
 46
0.9791340801206377
 71
     1
 72
     5
  1
Title:
  7
Logix
 73
     1
 44
1.0
1001
ACAD
1000
ACAD_MTEXT_DEFINED_HEIGHT_BEGIN
1070
    46
1040
0.9791340801206377
1000
ACAD_MTEXT_DEFINED_HEIGHT_END
  0
MTEXT
  5
7BAF
330
1F
100
AcDbEntity
  8
Dim
100
AcDbMText
 10
92.80639506238067
 20
2.564027763763462
 30
0.0
 40
1.25
 41
39.5
 46
5.340002514040832
 71
     5
 72
     5
  1
LOGIX PILASTER SUPPORTING STEEL COLUMN
  7
Logix
 73
     1
 44
1.0
1001
ACAD
1000
ACAD_MTEXT_DEFINED_HEIGHT_BEGIN
1070
    46
1040
5.340002514040832
1000
ACAD_MTEXT_DEFINED_HEIGHT_END
  0
LINE
  5
81F1
330
1F
100
AcDbEntity
  8
Dim
100
AcDbLine
 10
27.11748254559107
 20
110.8962373936953
 30
0.0
 11
113.3734236536866
 21
110.8962373936953
 31
0.0
  0
LINE
  5
81F2
330
1F
100
AcDbEntity
  8
Dim
100
AcDbLine
 10
113.3734236536866
 20
110.8962373936953
 30
0.0
 11
113.3734236536866
 21
-0.6702746285459398
 31
0.0
  0
LINE
  5
81F3
330
1F
100
AcDbEntity
  8
Dim
100
AcDbLine
 10
113.3734236536866
 20
-0.6702746285459398
 30
0.0
 11
27.11748254559108
 21
-0.6702746285459455
 31
0.0
  0
LINE
  5
81F4
330
1F
100
AcDbEntity
  8
Dim
100
AcDbLine
 10
27.11748254559108
 20
-0.6702746285459455
 30
0.0
 11
27.11748254559107
 21
110.8962373936953
 31
0.0
  0
HATCH
  5
12F7D
330
1F
100
AcDbEntity
  8
Block
100
AcDbHatch
 10
0.0
 20
0.0
 30
0.0
210
0.0
220
0.0
230
1.0
  2
SACNCR
 70
     0
 71
     1
 91
        1
 92
        1
 93
        4
 72
     1
 10
59.48493490299719
 20
61.09078855809267
 11
62.2349349029972
 21
61.09078855809267
 72
     1
 10
62.2349349029972
 20
61.09078855809267
 11
62.2349349029972
 21
45.09078855809268
 72
     1
 10
62.2349349029972
 20
45.09078855809268
 11
59.48493490299719
 21
45.09078855809268
 72
     1
 10
59.48493490299719
 20
45.09078855809268
 11
59.48493490299719
 21
61.09078855809267
 97
        4
330
12F83
330
12F7F
330
12F81
330
12F82
 75
     0
 76
     1
 52
0.0
 41
10.0
 77
     0
 78
     2
 53
45.0
 43
59.48493490299719
 44
45.09078855809268
 45
-0.6629126073623883
 46
0.6629126073623884
 79
     0
 53
45.0
 43
60.1478475129972
 44
45.09078855809268
 45
-0.6629126073623883
 46
0.6629126073623884
 79
     2
 49
0.0
 49
-0.9375
 98
        1
 10
-97.71291759942052
 20
-9.969135201549363
1001
ACAD
1010
157.1978525024177
1020
55.05992375964204
1030
0.0
  0
HATCH
  5
12F7E
330
1F
100
AcDbEntity
  8
Conc
100
AcDbHatch
 10
0.0
 20
0.0
 30
0.0
210
0.0
220
0.0
230
1.0
  2
AR-CONC
 70
     0
 71
     0
 91
        1
 92
        1
 93
       12
 72
     1
 10
69.85993490299737
 20
45.09078855809268
 11
70.35993490299734
 21
46.46452726781996
 72
     1
 10
70.35993490299734
 20
46.46452726781997
 11
70.85993490299728
 21
45.09078855809266
 72
     1
 10
70.85993490299728
 20
45.09078855809266
 11
78.48493490299722
 21
45.09078855809266
 72
     1
 10
78.48493490299722
 20
45.09078855809268
 11
78.48493490299722
 21
61.09078855809267
 72
     1
 10
78.48493490299722
 20
61.09078855809267
 11
68.48493490299722
 21
61.09078855809267
 72
     1
 10
68.48493490299722
 20
61.09078855809267
 11
68.48493490299722
 21
77.09078855809266
 72
     1
 10
68.48493490299722
 20
77.09078855809266
 11
67.97577999074267
 21
77.09078855809265
 72
     1
 10
67.97577999074267
 20
77.09078855809265
 11
67.4757799907427
 21
75.71704984836542
 72
     1
 10
67.4757799907427
 20
75.71704984836542
 11
66.97577999074269
 21
77.09078855809264
 72
     1
 10
66.97577999074269
 20
77.09078855809264
 11
62.2349349029972
 21
77.09078855809266
 72
     1
 10
62.2349349029972
 20
77.09078855809266
 11
62.2349349029972
 21
45.09078855809266
 72
     1
 10
62.2349349029972
 20
45.09078855809268
 11
69.85993490299737
 21
45.0907885580927
 97
        0
 75
     0
 76
     1
 52
0.0
 41
0.75
 77
     0
 78
    13
 53
50.0
 43
62.2349349029972
 44
45.09078855809268
 45
5.37945136950565
 46
-0.4706410123694634
 79
     2
 49
0.5625
 49
-6.1875
 53
355.0
 43
62.2349349029972
 44
45.09078855809268
 45
-1.040635002097499
 46
5.641441002750088
 79
     2
 49
0.45
 49
-4.949999999999999
 53
100.4514
 43
62.68322250299718
 44
45.05156850809266
 45
4.338820362855162
 46
5.170796565457152
 79
     2
 49
0.478051425
 49
-5.258565839999997
 53
46.1842
 43
62.2349349029972
 44
46.59078855809268
 45
8.004307864692332
 46
-1.241392607467635
 79
     2
 49
0.84375
 49
-9.28125
 53
96.63559999999996
 43
62.9019604904972
 44
46.48733875559267
 45
7.009970291615275
 46
7.305884031753313
 79
     2
 49
0.7170771599999997
 49
-7.887847499999996
 53
351.1842000000001
 43
62.2349349029972
 44
46.59078855809268
 45
7.009964588502203
 46
7.305889506939934
 79
     2
 49
0.675
 49
-7.425
 53
21.0
 43
62.98493490299719
 44
46.21578855809268
 45
4.476802890888462
 46
-3.019641679990041
 79
     2
 49
0.5625
 49
-6.1875
 53
326.0
 43
62.98493490299719
 44
46.21578855809268
 45
1.824864989411862
 46
5.438625337851397
 79
     2
 49
0.45
 49
-4.949999999999999
 53
71.45140000000001
 43
63.35800165049718
 44
45.96415151309267
 45
6.301669714361175
 46
2.418978725324643
 79
     2
 49
0.4780514250000002
 49
-5.258565839999999
 53
37.5
 43
62.2349349029972
 44
45.09078855809268
 45
0.09119891487968
 46
2.496703903734836
 79
     6
 49
0.0
 49
-4.889999999999999
 49
0.0
 49
-5.025
 49
0.0
 49
-4.96875
 53
7.499999999999999
 43
62.2349349029972
 44
45.09078855809268
 45
1.973021530816114
 46
2.958087839117701
 79
     6
 49
0.0
 49
-2.864999999999999
 49
0.0
 49
-4.777499999999999
 49
0.0
 49
-1.893749999999999
 53
327.5
 43
60.56243490299718
 44
45.09078855809268
 45
4.003668271293068
 46
-0.1691615380078485
 79
     6
 49
0.0
 49
-1.875
 49
0.0
 49
-5.849999999999999
 49
0.0
 49
-7.762499999999999
 53
317.5
 43
59.81243490299718
 44
45.09078855809268
 45
4.373896270067897
 46
0.7507873674923823
 79
     6
 49
0.0
 49
-2.4375
 49
0.0
 49
-3.884999999999999
 49
0.0
 49
-5.512499999999999
 98
        1
 10
-97.71291759942052
 20
-9.969135201549363
1001
ACAD
1010
159.9478525024177
1020
55.05992375964204
1030
0.0
  0
LINE
  5
12F7F
102
{ACAD_REACTORS
330
12F7D
102
}
330
1F
100
AcDbEntity
  8
Block
370
    30
100
AcDbLine
 10
62.2349349029972
 20
61.09078855809267
 30
0.0
 11
62.2349349029972
 21
45.09078855809268
 31
0.0
  0
LWPOLYLINE
  5
12F80
102
{ACAD_REACTORS
330
13061
102
}
330
1F
100
AcDbEntity
  8
Rebar
370
    30
100
AcDbPolyline
 90
        2
 70
     0
 43
0.2
 10
63.23493490299719
 20
77.09078855809268
 10
63.23493490299719
 20
45.09078855809268
  0
LINE
  5
12F81
102
{ACAD_REACTORS
330
12F7D
102
}
330
1F
100
AcDbEntity
  8
Block
370
    30
100
AcDbLine
 10
62.2349349029972
 20
45.09078855809268
 30
0.0
 11
59.48493490299719
 21
45.09078855809268
 31
0.0
  0
LINE
  5
12F82
102
{ACAD_REACTORS
330
12F7D
102
}
330
1F
100
AcDbEntity
  8
Block
370
    30
100
AcDbLine
 10
59.48493490299719
 20
45.09078855809268
 30
0.0
 11
59.48493490299719
 21
61.09078855809267
 31
0.0
  0
LINE
  5
12F83
102
{ACAD_REACTORS
330
12F7D
102
}
330
1F
100
AcDbEntity
  8
Block
370
    30
100
AcDbLine
 10
59.48493490299719
 20
61.09078855809267
 30
0.0
 11
62.2349349029972
 21
61.09078855809267
 31
0.0
  0
LINE
  5
12F84
330
1F
100
AcDbEntity
  8
Knobs
  6
HIDDEN
 62
   254
100
AcDbLine
 10
71.23493490299722
 20
45.09078855809268
 30
0.0
 11
70.85993490299728
 21
45.09078855809268
 31
0.0
  0
LINE
  5
12F85
330
1F
100
AcDbEntity
  8
Knobs
  6
HIDDEN
 62
   254
100
AcDbLine
 10
68.48493490299722
 20
61.09078855809267
 30
0.0
 11
71.23493490299722
 21
61.09078855809267
 31
0.0
  0
LWPOLYLINE
  5
12F86
330
1F
100
AcDbEntity
  8
Rebar
100
AcDbPolyline
 90
        2
 70
     0
 43
0.1
 10
63.04346638132324
 20
60.09078855809267
 10
77.63573092522438
 20
60.09078855809267
  0
LWPOLYLINE
  5
12F87
330
1F
100
AcDbEntity
  8
Rebar
100
AcDbPolyline
 90
        2
 70
     0
 43
0.1
 10
63.04346638132324
 20
54.09078855809267
 10
77.63573092522438
 20
54.09078855809267
  0
LWPOLYLINE
  5
12F88
330
1F
100
AcDbEntity
  8
Rebar
100
AcDbPolyline
 90
        2
 70
     0
 43
0.1
 10
63.04346638132324
 20
48.09078855809267
 10
77.63573092522438
 20
48.09078855809267
  0
LINE
  5
12F89
330
1F
100
AcDbEntity
  8
Web
  6
HIDDEN
100
AcDbLine
 10
62.2349349029972
 20
56.46578855809268
 30
0.0
 11
63.23493490299717
 21
56.46578855809266
 31
0.0
  0
LINE
  5
12F8A
330
1F
100
AcDbEntity
  8
Web
  6
HIDDEN
100
AcDbLine
 10
63.60993490299716
 20
54.96578855809268
 30
0.0
 11
62.98493490299719
 21
54.96578855809268
 31
0.0
  0
LINE
  5
12F8B
330
1F
100
AcDbEntity
  8
Web
  6
HIDDEN
100
AcDbLine
 10
62.2349349029972
 20
54.21578855809269
 30
0.0
 11
62.2349349029972
 21
56.64078855809268
 31
0.0
  0
ARC
  5
12F8C
330
1F
100
AcDbEntity
  8
Web
  6
HIDDEN
100
AcDbCircle
 10
62.98493490299719
 20
54.21578855809269
 30
0.0
 40
0.75
100
AcDbArc
 50
90.0
 51
180.0
  0
LINE
  5
12F8D
330
1F
100
AcDbEntity
  8
Web
  6
HIDDEN
100
AcDbLine
 10
63.23493490299719
 20
56.09078855809269
 30
0.0
 11
63.23493490299719
 21
56.46578855809268
 31
0.0
  0
ARC
  5
12F8E
330
1F
100
AcDbEntity
  8
Web
  6
HIDDEN
100
AcDbCircle
 10
63.60993490299719
 20
56.09078855809269
 30
0.0
 40
0.375
100
AcDbArc
 50
180.0
 51
270.0
  0
LINE
  5
12F8F
330
1F
100
AcDbEntity
  8
Web
  6
HIDDEN
100
AcDbLine
 10
63.23493490299719
 20
56.46578855809266
 30
0.0
 11
63.3259159029972
 21
56.46578855809268
 31
0.0
  0
LINE
  5
12F90
330
1F
100
AcDbEntity
  8
Web
  6
HIDDEN
100
AcDbLine
 10
63.23493490299717
 20
56.19578855809267
 30
0.0
 11
63.35191072681727
 21
56.39883633420805
 31
0.0
  0
ARC
  5
12F91
330
1F
100
AcDbEntity
  8
Web
  6
HIDDEN
100
AcDbCircle
 10
63.3259159029972
 20
56.41381195221078
 30
0.0
 40
0.03
100
AcDbArc
 50
330.0537554473531
 51
0.0
  0
LINE
  5
12F92
330
1F
100
AcDbEntity
  8
Web
  6
HIDDEN
100
AcDbLine
 10
63.3559159029972
 20
56.41381195221078
 30
0.0
 11
63.3559159029972
 21
56.43578855809268
 31
0.0
  0
ARC
  5
12F93
330
1F
100
AcDbEntity
  8
Web
  6
HIDDEN
100
AcDbCircle
 10
63.3259159029972
 20
56.43578855809268
 30
0.0
 40
0.03
100
AcDbArc
 50
0.0
 51
90.00000000000323
  0
LINE
  5
12F94
330
1F
100
AcDbEntity
  8
Web
  6
HIDDEN
100
AcDbLine
 10
62.2349349029972
 20
56.75078855809267
 30
0.0
 11
62.2349349029972
 21
56.64078855809268
 31
0.0
  0
LINE
  5
12F95
330
1F
100
AcDbEntity
  8
Web
  6
HIDDEN
100
AcDbLine
 10
62.2349349029972
 20
54.21578855809269
 30
0.0
 11
62.2349349029972
 21
53.09078855809268
 31
0.0
  0
LINE
  5
12F96
330
1F
100
AcDbEntity
  8
Web
  6
HIDDEN
100
AcDbLine
 10
62.2349349029972
 20
49.71578855809268
 30
0.0
 11
63.23493490299717
 21
49.71578855809268
 31
0.0
  0
LINE
  5
12F97
330
1F
100
AcDbEntity
  8
Web
  6
HIDDEN
100
AcDbLine
 10
63.60993490299716
 20
51.21578855809268
 30
0.0
 11
62.98493490299719
 21
51.21578855809268
 31
0.0
  0
LINE
  5
12F98
330
1F
100
AcDbEntity
  8
Web
  6
HIDDEN
100
AcDbLine
 10
62.2349349029972
 20
51.96578855809268
 30
0.0
 11
62.2349349029972
 21
49.54078855809267
 31
0.0
  0
ARC
  5
12F99
330
1F
100
AcDbEntity
  8
Web
  6
HIDDEN
100
AcDbCircle
 10
62.98493490299719
 20
51.96578855809268
 30
0.0
 40
0.75
100
AcDbArc
 50
180.0
 51
270.0
  0
LINE
  5
12F9A
330
1F
100
AcDbEntity
  8
Web
  6
HIDDEN
100
AcDbLine
 10
63.23493490299719
 20
50.09078855809268
 30
0.0
 11
63.23493490299719
 21
49.71578855809268
 31
0.0
  0
ARC
  5
12F9B
330
1F
100
AcDbEntity
  8
Web
  6
HIDDEN
100
AcDbCircle
 10
63.60993490299719
 20
50.09078855809268
 30
0.0
 40
0.375
100
AcDbArc
 50
90.0
 51
180.0
  0
LINE
  5
12F9C
330
1F
100
AcDbEntity
  8
Web
  6
HIDDEN
100
AcDbLine
 10
63.23493490299719
 20
49.71578855809268
 30
0.0
 11
63.3259159029972
 21
49.71578855809268
 31
0.0
  0
LINE
  5
12F9D
330
1F
100
AcDbEntity
  8
Web
  6
HIDDEN
100
AcDbLine
 10
63.23493490299717
 20
49.98578855809269
 30
0.0
 11
63.35191072681727
 21
49.78274078197731
 31
0.0
  0
ARC
  5
12F9E
330
1F
100
AcDbEntity
  8
Web
  6
HIDDEN
100
AcDbCircle
 10
63.3259159029972
 20
49.76776516397457
 30
0.0
 40
0.03
100
AcDbArc
 50
0.0
 51
29.9462445526467
  0
LINE
  5
12F9F
330
1F
100
AcDbEntity
  8
Web
  6
HIDDEN
100
AcDbLine
 10
63.3559159029972
 20
49.76776516397457
 30
0.0
 11
63.3559159029972
 21
49.74578855809268
 31
0.0
  0
ARC
  5
12FA0
330
1F
100
AcDbEntity
  8
Web
  6
HIDDEN
100
AcDbCircle
 10
63.3259159029972
 20
49.74578855809268
 30
0.0
 40
0.03
100
AcDbArc
 50
269.9999999999968
 51
0.0
  0
LINE
  5
12FA1
330
1F
100
AcDbEntity
  8
Web
  6
HIDDEN
100
AcDbLine
 10
62.2349349029972
 20
49.43078855809268
 30
0.0
 11
62.2349349029972
 21
49.54078855809267
 31
0.0
  0
LINE
  5
12FA2
330
1F
100
AcDbEntity
  8
Web
  6
HIDDEN
100
AcDbLine
 10
62.2349349029972
 20
51.96578855809268
 30
0.0
 11
62.2349349029972
 21
53.09078855809268
 31
0.0
  0
HATCH
  5
12FA3
330
1F
100
AcDbEntity
  8
Block
100
AcDbHatch
 10
0.0
 20
0.0
 30
0.0
210
0.0
220
0.0
230
1.0
  2
SACNCR
 70
     0
 71
     1
 91
        1
 92
        1
 93
        4
 72
     1
 10
78.48493490299722
 20
61.09078855809267
 11
81.23493490299722
 21
61.09078855809267
 72
     1
 10
81.23493490299722
 20
61.09078855809267
 11
81.23493490299722
 21
45.09078855809268
 72
     1
 10
81.23493490299722
 20
45.09078855809268
 11
78.48493490299722
 21
45.09078855809268
 72
     1
 10
78.48493490299722
 20
45.09078855809268
 11
78.48493490299722
 21
61.09078855809267
 97
        4
330
12FA8
330
12FA4
330
12FA5
330
12FA6
 75
     0
 76
     1
 52
0.0
 41
10.0
 77
     0
 78
     2
 53
45.0
 43
78.48493490299722
 44
45.09078855809268
 45
-0.6629126073623883
 46
0.6629126073623884
 79
     0
 53
45.0
 43
79.14784751299723
 44
45.09078855809268
 45
-0.6629126073623883
 46
0.6629126073623884
 79
     2
 49
0.0
 49
-0.9375
 98
        1
 10
-87.7129175994205
 20
-9.969135201549363
1001
ACAD
1010
166.1978525024177
1020
55.05992375964204
1030
0.0
  0
LINE
  5
12FA4
102
{ACAD_REACTORS
330
12FA3
102
}
330
1F
100
AcDbEntity
  8
Knobs
100
AcDbLine
 10
81.23493490299722
 20
61.09078855809267
 30
0.0
 11
81.23493490299722
 21
45.09078855809268
 31
0.0
  0
LINE
  5
12FA5
102
{ACAD_REACTORS
330
12FA3
102
}
330
1F
100
AcDbEntity
  8
Knobs
100
AcDbLine
 10
81.23493490299722
 20
45.09078855809268
 30
0.0
 11
78.48493490299722
 21
45.09078855809268
 31
0.0
  0
LINE
  5
12FA6
102
{ACAD_REACTORS
330
12FA3
102
}
330
1F
100
AcDbEntity
  8
Knobs
100
AcDbLine
 10
78.48493490299722
 20
45.09078855809268
 30
0.0
 11
78.48493490299722
 21
61.09078855809267
 31
0.0
  0
LWPOLYLINE
  5
12FA7
102
{ACAD_REACTORS
330
13075
102
}
330
1F
100
AcDbEntity
  8
Rebar
100
AcDbPolyline
 90
        2
 70
     0
 43
0.2
 10
77.48493490299722
 20
45.09078855809268
 10
77.48493490299722
 20
60.51007869194217
  0
LINE
  5
12FA8
102
{ACAD_REACTORS
330
12FA3
102
}
330
1F
100
AcDbEntity
  8
Knobs
100
AcDbLine
 10
78.48493490299722
 20
61.09078855809267
 30
0.0
 11
81.23493490299722
 21
61.09078855809267
 31
0.0
  0
HATCH
  5
12FA9
330
1F
100
AcDbEntity
  8
Grout
100
AcDbHatch
 10
0.0
 20
0.0
 30
0.0
210
0.0
220
0.0
230
1.0
  2
AR-CONC
 70
     0
 71
     1
 91
        1
 92
        1
 93
        4
 72
     1
 10
71.73493490299723
 20
61.59078855809267
 11
77.98493490299723
 21
61.59078855809267
 72
     1
 10
77.98493490299723
 20
61.59078855809267
 11
78.48493490299722
 21
61.09078855809267
 72
     1
 10
78.48493490299722
 20
61.09078855809267
 11
71.23493490299722
 21
61.09078855809267
 72
     1
 10
71.23493490299722
 20
61.09078855809267
 11
71.73493490299723
 21
61.59078855809267
 97
        4
330
12FB2
330
12FAB
330
12FAD
330
12FAA
 75
     0
 76
     1
 52
0.0
 41
0.1
 77
     0
 78
    13
 53
50.0
 43
71.23493490299722
 44
61.09078855809267
 45
0.7172601826007536
 46
-0.0627521349825951
 79
     2
 49
0.075
 49
-0.825
 53
355.0
 43
71.23493490299722
 44
61.09078855809267
 45
-0.138751333613
 46
0.752192133700012
 79
     2
 49
0.06
 49
-0.6600000000000001
 53
100.4514
 43
71.29470658299723
 44
61.08555921809267
 45
0.5785093817140216
 46
0.6894395420609536
 79
     2
 49
0.06374019
 49
-0.7011421119999998
 53
46.1842
 43
71.23493490299722
 44
61.29078855809267
 45
1.067241048625644
 46
-0.1655190143290181
 79
     2
 49
0.1125
 49
-1.2375
 53
96.63559999999996
 43
71.32387164799723
 44
61.27699525109267
 45
0.9346627055487033
 46
0.9741178709004417
 79
     2
 49
0.095610288
 49
-1.051712999999999
 53
351.1842000000001
 43
71.23493490299722
 44
61.29078855809267
 45
0.9346619451336271
 46
0.9741186009253246
 79
     2
 49
0.09
 49
-0.99
 53
21.0
 43
71.33493490299722
 44
61.24078855809267
 45
0.5969070521184618
 46
-0.4026188906653389
 79
     2
 49
0.075
 49
-0.825
 53
326.0
 43
71.33493490299722
 44
61.24078855809267
 45
0.2433153319215817
 46
0.7251500450468531
 79
     2
 49
0.06
 49
-0.6600000000000001
 53
71.45140000000001
 43
71.38467713599723
 44
61.20723695209267
 45
0.8402226285814899
 46
0.3225304967099524
 79
     2
 49
0.06374019
 49
-0.701142112
 53
37.5
 43
71.23493490299722
 44
61.09078855809267
 45
0.0121598553172907
 46
0.3328938538313115
 79
     6
 49
0.0
 49
-0.6520000000000001
 49
0.0
 49
-0.6700000000000001
 49
0.0
 49
-0.6625000000000001
 53
7.499999999999999
 43
71.23493490299722
 44
61.09078855809267
 45
0.2630695374421486
 46
0.3944117118823602
 79
     6
 49
0.0
 49
-0.382
 49
0.0
 49
-0.637
 49
0.0
 49
-0.2525
 53
327.5
 43
71.01193490299721
 44
61.09078855809267
 45
0.5338224361724091
 46
-0.0225548717343798
 79
     6
 49
0.0
 49
-0.25
 49
0.0
 49
-0.7800000000000001
 49
0.0
 49
-1.034999999999999
 53
317.5
 43
70.91193490299722
 44
61.09078855809267
 45
0.5831861693423863
 46
0.1001049823323176
 79
     6
 49
0.0
 49
-0.325
 49
0.0
 49
-0.518
 49
0.0
 49
-0.735
 98
        1
 10
-97.71291759942052
 20
-9.969135201549363
1001
ACAD
1010
168.9478525024177
1020
71.05992375964203
1030
0.0
  0
LINE
  5
12FAA
102
{ACAD_REACTORS
330
12FA9
102
}
330
1F
100
AcDbEntity
  8
Grout
100
AcDbLine
 10
71.73493490299723
 20
61.59078855809267
 30
0.0
 11
71.23493490299722
 21
61.09078855809267
 31
0.0
  0
LINE
  5
12FAB
102
{ACAD_REACTORS
330
12FA9
330
1307F
102
}
330
1F
100
AcDbEntity
  8
Grout
100
AcDbLine
 10
77.98493490299723
 20
61.59078855809267
 30
0.0
 11
78.48493490299722
 21
61.09078855809267
 31
0.0
  0
LINE
  5
12FAC
330
1F
100
AcDbEntity
  8
Grout
100
AcDbLine
 10
71.73493490299723
 20
61.59078855809267
 30
0.0
 11
77.98493490299723
 21
61.59078855809267
 31
0.0
  0
LINE
  5
12FAD
102
{ACAD_REACTORS
330
12FA9
102
}
330
1F
100
AcDbEntity
  8
Grout
100
AcDbLine
 10
78.48493490299722
 20
61.09078855809267
 30
0.0
 11
71.23493490299722
 21
61.09078855809267
 31
0.0
  0
HATCH
  5
12FAE
330
1F
100
AcDbEntity
  8
steel
100
AcDbHatch
 10
0.0
 20
0.0
 30
0.0
210
0.0
220
0.0
230
1.0
  2
ANSI31
 70
     0
 71
     1
 91
        1
 92
        1
 93
        4
 72
     1
 10
77.98493490299723
 20
62.09078855809266
 11
71.73493490299723
 21
62.09078855809266
 72
     1
 10
71.73493490299723
 20
62.09078855809266
 11
71.73493490299723
 21
61.59078855809267
 72
     1
 10
71.73493490299723
 20
61.59078855809267
 11
77.98493490299723
 21
61.59078855809267
 72
     1
 10
77.98493490299723
 20
61.59078855809267
 11
77.98493490299723
 21
62.09078855809266
 97
        4
330
12FB0
330
12FB1
330
12FB2
330
12FAF
 75
     0
 76
     1
 52
0.0
 41
3.0
 77
     0
 78
     1
 53
45.0
 43
71.73493490299723
 44
61.59078855809267
 45
-0.2651650429449553
 46
0.2651650429449553
 79
     0
 98
        1
 10
-97.71291759942052
 20
-9.969135201549363
1001
ACAD
1010
169.4478525024177
1020
71.55992375964203
1030
0.0
  0
LINE
  5
12FAF
102
{ACAD_REACTORS
330
12FAE
102
}
330
1F
100
AcDbEntity
  8
steel
100
AcDbLine
 10
77.98493490299723
 20
61.59078855809267
 30
0.0
 11
77.98493490299723
 21
62.09078855809266
 31
0.0
  0
LINE
  5
12FB0
102
{ACAD_REACTORS
330
12FAE
102
}
330
1F
100
AcDbEntity
  8
steel
100
AcDbLine
 10
77.98493490299723
 20
62.09078855809266
 30
0.0
 11
71.73493490299723
 21
62.09078855809266
 31
0.0
  0
LINE
  5
12FB1
102
{ACAD_REACTORS
330
12FAE
102
}
330
1F
100
AcDbEntity
  8
steel
100
AcDbLine
 10
71.73493490299723
 20
62.09078855809266
 30
0.0
 11
71.73493490299723
 21
61.59078855809267
 31
0.0
  0
LINE
  5
12FB2
102
{ACAD_REACTORS
330
12FAE
330
12FA9
102
}
330
1F
100
AcDbEntity
  8
steel
100
AcDbLine
 10
71.73493490299723
 20
61.59078855809267
 30
0.0
 11
77.98493490299723
 21
61.59078855809267
 31
0.0
  0
LINE
  5
12FB3
330
1F
100
AcDbEntity
  8
Conc
100
AcDbLine
 10
72.48493490299719
 20
61.09078855809267
 30
0.0
 11
72.48493490299719
 21
57.09078855809265
 31
0.0
  0
LINE
  5
12FB4
330
1F
100
AcDbEntity
  8
Conc
100
AcDbLine
 10
72.98493490299723
 20
61.09078855809267
 30
0.0
 11
72.98493490299723
 21
57.09078855809265
 31
0.0
  0
LINE
  5
12FB5
330
1F
100
AcDbEntity
  8
Conc
100
AcDbLine
 10
77.23493490299722
 20
61.09078855809267
 30
0.0
 11
77.2349349029972
 21
57.09078855809265
 31
0.0
  0
LINE
  5
12FB6
330
1F
100
AcDbEntity
  8
Conc
100
AcDbLine
 10
76.73493490299723
 20
61.09078855809267
 30
0.0
 11
76.73493490299723
 21
57.09078855809265
 31
0.0
  0
LINE
  5
12FB7
330
1F
100
AcDbEntity
  8
Conc
100
AcDbLine
 10
72.48493490299719
 20
57.09078855809265
 30
0.0
 11
72.98493490299723
 21
57.09078855809265
 31
0.0
  0
LINE
  5
12FB8
330
1F
100
AcDbEntity
  8
Conc
100
AcDbLine
 10
76.73493490299723
 20
57.09078855809265
 30
0.0
 11
77.2349349029972
 21
57.09078855809265
 31
0.0
  0
HATCH
  5
12FB9
330
1F
100
AcDbEntity
  8
steel
100
AcDbHatch
 10
0.0
 20
0.0
 30
0.0
210
0.0
220
0.0
230
1.0
  2
ANSI31
 70
     0
 71
     1
 91
        1
 92
        1
 93
        4
 72
     1
 10
72.35993490299723
 20
62.14078855809266
 11
72.35993490299723
 21
62.09078855809266
 72
     1
 10
72.35993490299723
 20
62.09078855809266
 11
73.10993490299722
 21
62.09078855809266
 72
     1
 10
73.10993490299722
 20
62.09078855809266
 11
73.10993490299722
 21
62.14078855809266
 72
     1
 10
73.10993490299722
 20
62.14078855809266
 11
72.35993490299723
 21
62.14078855809266
 97
        4
330
12FBD
330
12FBA
330
12FBB
330
12FBC
 75
     0
 76
     1
 52
0.0
 41
0.5
 77
     0
 78
     1
 53
45.0
 43
72.35993490299723
 44
62.09078855809266
 45
-0.0441941738241592
 46
0.0441941738241592
 79
     0
 98
        1
 10
-95.64669644952971
 20
-11.98523062682071
1001
ACAD
1010
168.0066313525269
1020
74.07601918491337
1030
0.0
  0
LINE
  5
12FBA
102
{ACAD_REACTORS
330
12FB9
102
}
330
1F
100
AcDbEntity
  8
steel
100
AcDbLine
 10
72.35993490299723
 20
62.09078855809266
 30
0.0
 11
73.10993490299722
 21
62.09078855809266
 31
0.0
  0
LINE
  5
12FBB
102
{ACAD_REACTORS
330
12FB9
102
}
330
1F
100
AcDbEntity
  8
steel
100
AcDbLine
 10
73.10993490299722
 20
62.09078855809266
 30
0.0
 11
73.10993490299722
 21
62.14078855809266
 31
0.0
  0
LINE
  5
12FBC
102
{ACAD_REACTORS
330
12FB9
102
}
330
1F
100
AcDbEntity
  8
steel
100
AcDbLine
 10
73.10993490299722
 20
62.14078855809266
 30
0.0
 11
72.35993490299723
 21
62.14078855809266
 31
0.0
  0
LINE
  5
12FBD
102
{ACAD_REACTORS
330
12FB9
102
}
330
1F
100
AcDbEntity
  8
steel
100
AcDbLine
 10
72.35993490299723
 20
62.14078855809266
 30
0.0
 11
72.35993490299723
 21
62.09078855809266
 31
0.0
  0
LINE
  5
12FBE
330
1F
100
AcDbEntity
  8
steel
100
AcDbLine
 10
72.73493490299725
 20
62.36617042455344
 30
0.0
 11
72.50849918800509
 21
62.36617042455344
 31
0.0
  0
LINE
  5
12FBF
330
1F
100
AcDbEntity
  8
steel
100
AcDbLine
 10
72.50849918800509
 20
62.36617042455344
 30
0.0
 11
72.50849918800509
 21
62.14078855809266
 31
0.0
  0
LINE
  5
12FC0
330
1F
100
AcDbEntity
  8
steel
100
AcDbLine
 10
72.73493490299725
 20
62.36617042455344
 30
0.0
 11
72.96137061798941
 21
62.36617042455339
 31
0.0
  0
LINE
  5
12FC1
330
1F
100
AcDbEntity
  8
steel
100
AcDbLine
 10
72.96137061798941
 20
62.36617042455339
 30
0.0
 11
72.96137061798936
 21
62.14078855809261
 31
0.0
  0
LINE
  5
12FC2
330
1F
100
AcDbEntity
  8
steel
100
AcDbLine
 10
72.56749386100387
 20
62.36617042455344
 30
0.0
 11
72.56749386100387
 21
62.14078855809266
 31
0.0
  0
LINE
  5
12FC3
330
1F
100
AcDbEntity
  8
steel
100
AcDbLine
 10
72.90237594499067
 20
62.36617042455344
 30
0.0
 11
72.90237594499067
 21
62.14078855809266
 31
0.0
  0
LINE
  5
12FC4
330
1F
100
AcDbEntity
  8
steel
100
AcDbLine
 10
72.73493490299725
 20
62.43900414693133
 30
0.0
 11
72.87872720993982
 21
62.43900414693133
 31
0.0
  0
LINE
  5
12FC5
330
1F
100
AcDbEntity
  8
steel
100
AcDbLine
 10
72.87872720993982
 20
62.43900414693133
 30
0.0
 11
72.8787272099398
 21
62.36617042455342
 31
0.0
  0
LINE
  5
12FC6
330
1F
100
AcDbEntity
  8
steel
100
AcDbLine
 10
72.73493490299722
 20
62.43900414693133
 30
0.0
 11
72.59114259605465
 21
62.43900414693133
 31
0.0
  0
LINE
  5
12FC7
330
1F
100
AcDbEntity
  8
steel
100
AcDbLine
 10
72.59114259605465
 20
62.43900414693133
 30
0.0
 11
72.59114259605468
 21
62.36617042455342
 31
0.0
  0
LINE
  5
12FC8
330
1F
100
AcDbEntity
  8
Dim
  6
CENTER2
100
AcDbLine
 10
72.73493490299722
 20
56.52841597378068
 30
0.0
 11
72.73493490299722
 21
62.79917632610693
 31
0.0
  0
HATCH
  5
12FC9
330
1F
100
AcDbEntity
  8
steel
100
AcDbHatch
 10
0.0
 20
0.0
 30
0.0
210
0.0
220
0.0
230
1.0
  2
ANSI31
 70
     0
 71
     1
 91
        1
 92
        1
 93
        4
 72
     1
 10
77.35993490299725
 20
62.14078855809266
 11
77.35993490299725
 21
62.09078855809266
 72
     1
 10
77.35993490299725
 20
62.09078855809266
 11
76.60993490299725
 21
62.09078855809266
 72
     1
 10
76.60993490299725
 20
62.09078855809266
 11
76.60993490299725
 21
62.14078855809266
 72
     1
 10
76.60993490299725
 20
62.14078855809266
 11
77.35993490299725
 21
62.14078855809266
 97
        4
330
12FCD
330
12FCA
330
12FCB
330
12FCC
 75
     0
 76
     1
 52
0.0
 41
0.5
 77
     0
 78
     1
 53
135.0
 43
77.35993490299725
 44
62.09078855809266
 45
0.0441941738241592
 46
0.0441941738241592
 79
     0
 98
        1
 10
245.3665662555242
 20
-11.98523062682071
1001
ACAD
1010
168.0066313525269
1020
74.07601918491337
1030
0.0
  0
LINE
  5
12FCA
102
{ACAD_REACTORS
330
12FC9
102
}
330
1F
100
AcDbEntity
  8
steel
100
AcDbLine
 10
77.35993490299725
 20
62.09078855809266
 30
0.0
 11
76.60993490299725
 21
62.09078855809266
 31
0.0
  0
LINE
  5
12FCB
102
{ACAD_REACTORS
330
12FC9
102
}
330
1F
100
AcDbEntity
  8
steel
100
AcDbLine
 10
76.60993490299725
 20
62.09078855809266
 30
0.0
 11
76.60993490299725
 21
62.14078855809266
 31
0.0
  0
LINE
  5
12FCC
102
{ACAD_REACTORS
330
12FC9
102
}
330
1F
100
AcDbEntity
  8
steel
100
AcDbLine
 10
76.60993490299725
 20
62.14078855809266
 30
0.0
 11
77.35993490299725
 21
62.14078855809266
 31
0.0
  0
LINE
  5
12FCD
102
{ACAD_REACTORS
330
12FC9
330
13079
102
}
330
1F
100
AcDbEntity
  8
steel
100
AcDbLine
 10
77.35993490299725
 20
62.14078855809266
 30
0.0
 11
77.35993490299725
 21
62.09078855809266
 31
0.0
  0
LINE
  5
12FCE
330
1F
100
AcDbEntity
  8
steel
100
AcDbLine
 10
76.98493490299722
 20
62.36617042455344
 30
0.0
 11
77.21137061798938
 21
62.36617042455344
 31
0.0
  0
LINE
  5
12FCF
330
1F
100
AcDbEntity
  8
steel
100
AcDbLine
 10
76.98493490299722
 20
62.36617042455344
 30
0.0
 11
76.75849918800506
 21
62.36617042455339
 31
0.0
  0
LINE
  5
12FD0
330
1F
100
AcDbEntity
  8
steel
100
AcDbLine
 10
77.21137061798938
 20
62.36617042455344
 30
0.0
 11
77.21137061798938
 21
62.14078855809266
 31
0.0
  0
LINE
  5
12FD1
330
1F
100
AcDbEntity
  8
steel
100
AcDbLine
 10
76.75849918800506
 20
62.36617042455339
 30
0.0
 11
76.75849918800512
 21
62.14078855809261
 31
0.0
  0
LINE
  5
12FD2
330
1F
100
AcDbEntity
  8
steel
100
AcDbLine
 10
77.15237594499061
 20
62.36617042455344
 30
0.0
 11
77.15237594499061
 21
62.14078855809266
 31
0.0
  0
LINE
  5
12FD3
330
1F
100
AcDbEntity
  8
steel
100
AcDbLine
 10
76.84114259605465
 20
62.43900414693133
 30
0.0
 11
76.84114259605468
 21
62.36617042455342
 31
0.0
  0
LINE
  5
12FD4
330
1F
100
AcDbEntity
  8
steel
100
AcDbLine
 10
76.98493490299722
 20
62.43900414693133
 30
0.0
 11
76.84114259605465
 21
62.43900414693133
 31
0.0
  0
LINE
  5
12FD5
330
1F
100
AcDbEntity
  8
steel
100
AcDbLine
 10
76.81749386100381
 20
62.36617042455344
 30
0.0
 11
76.81749386100381
 21
62.14078855809266
 31
0.0
  0
LINE
  5
12FD6
330
1F
100
AcDbEntity
  8
steel
100
AcDbLine
 10
76.98493490299725
 20
62.43900414693133
 30
0.0
 11
77.12872720993982
 21
62.43900414693133
 31
0.0
  0
LINE
  5
12FD7
102
{ACAD_REACTORS
330
13083
102
}
330
1F
100
AcDbEntity
  8
Dim
  6
CENTER2
100
AcDbLine
 10
76.98493490299725
 20
56.52841597378068
 30
0.0
 11
76.98493490299725
 21
62.79917632610693
 31
0.0
  0
LINE
  5
12FD8
330
1F
100
AcDbEntity
  8
steel
100
AcDbLine
 10
77.12872720993982
 20
62.43900414693133
 30
0.0
 11
77.1287272099398
 21
62.36617042455342
 31
0.0
  0
LINE
  5
12FD9
102
{ACAD_REACTORS
330
12FDA
102
}
330
1F
100
AcDbEntity
  8
steel
100
AcDbLine
 10
76.26662507848806
 20
62.09078855809266
 30
0.0
 11
76.26662507848806
 21
77.09078855809266
 31
0.0
  0
HATCH
  5
12FDA
330
1F
100
AcDbEntity
  8
steel
100
AcDbHatch
 10
0.0
 20
0.0
 30
0.0
210
0.0
220
0.0
230
1.0
  2
ANSI31
 70
     0
 71
     1
 91
        1
 92
        1
 93
        4
 72
     1
 10
76.26662507848806
 20
62.09078855809266
 11
76.26662507848806
 21
77.09078855809266
 72
     1
 10
76.26662507848806
 20
77.09078855809266
 11
76.46662507848805
 21
77.09078855809266
 72
     1
 10
76.46662507848805
 20
77.09078855809266
 11
76.46662507848805
 21
62.09078855809266
 72
     1
 10
76.46662507848805
 20
62.09078855809266
 11
76.26662507848806
 21
62.09078855809266
 97
        4
330
12FD9
330
13054
330
12FDB
330
13055
 75
     0
 76
     1
 52
0.0
 41
3.0
 77
     0
 78
     1
 53
45.0
 43
76.26662507848806
 44
62.09078855809266
 45
-0.2651650429449553
 46
0.2651650429449553
 79
     0
 98
        1
 10
-97.71291759942052
 20
-9.969135201549363
1001
ACAD
1010
173.9795426779086
1020
72.05992375964203
1030
0.0
  0
LINE
  5
12FDB
102
{ACAD_REACTORS
330
12FDA
330
13069
102
}
330
1F
100
AcDbEntity
  8
steel
100
AcDbLine
 10
76.46662507848805
 20
62.09078855809266
 30
0.0
 11
76.46662507848805
 21
77.09078855809266
 31
0.0
  0
HATCH
  5
12FDC
330
1F
100
AcDbEntity
  8
Block
100
AcDbHatch
 10
0.0
 20
0.0
 30
0.0
210
0.0
220
0.0
230
1.0
  2
SACNCR
 70
     0
 71
     1
 91
        1
 92
        1
 93
        4
 72
     1
 10
59.48493490299719
 20
77.09078855809266
 11
62.2349349029972
 21
77.09078855809266
 72
     1
 10
62.2349349029972
 20
77.09078855809266
 11
62.2349349029972
 21
61.09078855809267
 72
     1
 10
62.2349349029972
 20
61.09078855809267
 11
59.48493490299719
 21
61.09078855809267
 72
     1
 10
59.48493490299719
 20
61.09078855809267
 11
59.48493490299719
 21
77.09078855809266
 97
        4
330
12FE8
330
12FE4
330
12FE3
330
12FDD
 75
     0
 76
     1
 52
0.0
 41
10.0
 77
     0
 78
     2
 53
45.0
 43
59.48493490299719
 44
61.09078855809267
 45
-0.6629126073623883
 46
0.6629126073623884
 79
     0
 53
45.0
 43
60.1478475129972
 44
61.09078855809267
 45
-0.6629126073623883
 46
0.6629126073623884
 79
     2
 49
0.0
 49
-0.9375
 98
        1
 10
-97.71291759942052
 20
6.030864798450629
1001
ACAD
1010
157.1978525024177
1020
55.05992375964204
1030
0.0
  0
LINE
  5
12FDD
102
{ACAD_REACTORS
330
12FDC
102
}
330
1F
100
AcDbEntity
  8
Block
370
    30
100
AcDbLine
 10
59.48493490299719
 20
61.09078855809267
 30
0.0
 11
59.48493490299719
 21
77.09078855809266
 31
0.0
  0
HATCH
  5
12FDE
330
1F
100
AcDbEntity
  8
steel
100
AcDbHatch
 10
0.0
 20
0.0
 30
0.0
210
0.0
220
0.0
230
1.0
  2
ANSI31
 70
     0
 71
     1
 91
        1
 92
        1
 93
        4
 72
     1
 10
73.45324472750639
 20
77.09078855809266
 11
73.2532447275064
 21
77.09078855809266
 72
     1
 10
73.2532447275064
 20
77.09078855809266
 11
73.2532447275064
 21
62.09078855809266
 72
     1
 10
73.2532447275064
 20
62.09078855809266
 11
73.45324472750639
 21
62.09078855809266
 72
     1
 10
73.45324472750639
 20
62.09078855809266
 11
73.45324472750639
 21
77.09078855809266
 97
        4
330
13053
330
12FE2
330
13056
330
12FE0
 75
     0
 76
     1
 52
0.0
 41
3.0
 77
     0
 78
     1
 53
45.0
 43
73.2532447275064
 44
62.09078855809266
 45
-0.2651650429449553
 46
0.2651650429449553
 79
     0
 98
        1
 10
-97.71291759942052
 20
-9.969135201549363
1001
ACAD
1010
170.9661623269269
1020
72.05992375964203
1030
0.0
  0
HATCH
  5
12FDF
330
1F
100
AcDbEntity
  8
Block
100
AcDbHatch
 10
0.0
 20
0.0
 30
0.0
210
0.0
220
0.0
230
1.0
  2
SACNCR
 70
     0
 71
     0
 91
        1
 92
        1
 93
        4
 72
     1
 10
68.48493490299722
 20
77.09078855809266
 11
71.23493490299722
 21
77.09078855809266
 72
     1
 10
71.23493490299722
 20
77.09078855809266
 11
71.23493490299722
 21
61.09078855809267
 72
     1
 10
71.23493490299722
 20
61.09078855809267
 11
68.48493490299722
 21
61.09078855809267
 72
     1
 10
68.48493490299722
 20
61.09078855809267
 11
68.48493490299722
 21
77.09078855809266
 97
        0
 75
     0
 76
     1
 52
0.0
 41
10.0
 77
     0
 78
     2
 53
45.0
 43
68.48493490299722
 44
61.09078855809267
 45
-0.6629126073623883
 46
0.6629126073623884
 79
     0
 53
45.0
 43
69.14784751299723
 44
61.09078855809267
 45
-0.6629126073623883
 46
0.6629126073623884
 79
     2
 49
0.0
 49
-0.9375
 98
        1
 10
-97.71291759942052
 20
6.030864798450629
1001
ACAD
1010
166.1978525024177
1020
55.05992375964204
1030
0.0
  0
LINE
  5
12FE0
102
{ACAD_REACTORS
330
12FDE
102
}
330
1F
100
AcDbEntity
  8
steel
100
AcDbLine
 10
73.45324472750639
 20
62.09078855809266
 30
0.0
 11
73.45324472750639
 21
77.09078855809266
 31
0.0
  0
LINE
  5
12FE1
330
1F
100
AcDbEntity
  8
Knobs
100
AcDbLine
 10
68.48493490299722
 20
61.09078855809267
 30
0.0
 11
68.48493490299722
 21
78.43937435312357
 31
0.0
  0
LINE
  5
12FE2
102
{ACAD_REACTORS
330
12FDE
102
}
330
1F
100
AcDbEntity
  8
steel
100
AcDbLine
 10
73.2532447275064
 20
62.09078855809266
 30
0.0
 11
73.2532447275064
 21
77.09078855809266
 31
0.0
  0
LINE
  5
12FE3
102
{ACAD_REACTORS
330
12FDC
102
}
330
1F
100
AcDbEntity
  8
Block
370
    30
100
AcDbLine
 10
62.2349349029972
 20
61.09078855809267
 30
0.0
 11
59.48493490299719
 21
61.09078855809267
 31
0.0
  0
LINE
  5
12FE4
102
{ACAD_REACTORS
330
12FDC
102
}
330
1F
100
AcDbEntity
  8
Block
370
    30
100
AcDbLine
 10
62.2349349029972
 20
77.09078855809266
 30
0.0
 11
62.2349349029972
 21
61.09078855809267
 31
0.0
  0
LINE
  5
12FE5
330
1F
100
AcDbEntity
  8
Web
  6
HIDDEN
100
AcDbLine
 10
65.35993490299716
 20
70.96578855809267
 30
0.0
 11
62.98493490299719
 21
70.96578855809267
 31
0.0
  0
LINE
  5
12FE6
330
1F
100
AcDbEntity
  8
Web
  6
HIDDEN
100
AcDbLine
 10
62.2349349029972
 20
72.46578855809267
 30
0.0
 11
63.23493490299717
 21
72.46578855809267
 31
0.0
  0
LINE
  5
12FE7
330
1F
100
AcDbEntity
  8
Web
  6
HIDDEN
100
AcDbLine
 10
64.9474349029972
 20
72.46578855809267
 30
0.0
 11
65.0474349029972
 21
72.46578855809267
 31
0.0
  0
LINE
  5
12FE8
102
{ACAD_REACTORS
330
12FDC
102
}
330
1F
100
AcDbEntity
  8
Block
370
    30
100
AcDbLine
 10
59.48493490299719
 20
77.09078855809266
 30
0.0
 11
62.2349349029972
 21
77.09078855809266
 31
0.0
  0
LINE
  5
12FE9
330
1F
100
AcDbEntity
  8
Web
  6
HIDDEN
100
AcDbLine
 10
63.9849349029972
 20
72.46578855809267
 30
0.0
 11
64.4474349029972
 21
72.46578855809267
 31
0.0
  0
LINE
  5
12FEA
330
1F
100
AcDbEntity
  8
Web
  6
HIDDEN
100
AcDbLine
 10
62.2349349029972
 20
70.21578855809266
 30
0.0
 11
62.2349349029972
 21
72.64078855809268
 31
0.0
  0
LINE
  5
12FEB
330
1F
100
AcDbEntity
  8
Knobs
100
AcDbLine
 10
71.23493490299722
 20
77.09078855809266
 30
0.0
 11
71.23493490299722
 21
61.09078855809267
 31
0.0
  0
ARC
  5
12FEC
330
1F
100
AcDbEntity
  8
Web
  6
HIDDEN
100
AcDbCircle
 10
62.98493490299719
 20
70.21578855809266
 30
0.0
 40
0.75
100
AcDbArc
 50
90.0
 51
180.0
  0
ARC
  5
12FED
330
1F
100
AcDbEntity
  8
Web
  6
HIDDEN
100
AcDbCircle
 10
65.3599349029972
 20
72.02828855809267
 30
0.0
 40
0.3125
100
AcDbArc
 50
180.0
 51
270.0
  0
LINE
  5
12FEE
330
1F
100
AcDbEntity
  8
Knobs
100
AcDbLine
 10
68.48493490299722
 20
77.09078855809266
 30
0.0
 11
71.23493490299722
 21
77.09078855809266
 31
0.0
  0
LINE
  5
12FEF
330
1F
100
AcDbEntity
  8
Web
  6
HIDDEN
100
AcDbLine
 10
65.0474349029972
 20
72.02828855809267
 30
0.0
 11
65.0474349029972
 21
72.46578855809267
 31
0.0
  0
ARC
  5
12FF0
330
1F
100
AcDbEntity
  8
Web
  6
HIDDEN
100
AcDbCircle
 10
64.6974349029972
 20
72.21578855809267
 30
0.0
 40
0.25
100
AcDbArc
 50
180.0
 51
0.0
  0
LINE
  5
12FF1
330
1F
100
AcDbEntity
  8
Web
  6
HIDDEN
100
AcDbLine
 10
64.4474349029972
 20
72.21578855809267
 30
0.0
 11
64.4474349029972
 21
72.46578855809267
 31
0.0
  0
LINE
  5
12FF2
330
1F
100
AcDbEntity
  8
Web
  6
HIDDEN
100
AcDbLine
 10
64.9474349029972
 20
72.21578855809267
 30
0.0
 11
64.9474349029972
 21
72.46578855809267
 31
0.0
  0
LINE
  5
12FF3
330
1F
100
AcDbEntity
  8
Web
  6
HIDDEN
100
AcDbLine
 10
63.23493490299719
 20
72.09078855809266
 30
0.0
 11
63.23493490299719
 21
72.46578855809267
 31
0.0
  0
LINE
  5
12FF4
330
1F
100
AcDbEntity
  8
Web
  6
HIDDEN
100
AcDbLine
 10
63.9849349029972
 20
72.09078855809266
 30
0.0
 11
63.9849349029972
 21
72.46578855809267
 31
0.0
  0
ARC
  5
12FF5
330
1F
100
AcDbEntity
  8
Web
  6
HIDDEN
100
AcDbCircle
 10
63.60993490299719
 20
72.09078855809266
 30
0.0
 40
0.375
100
AcDbArc
 50
180.0
 51
0.0
  0
LINE
  5
12FF6
330
1F
100
AcDbEntity
  8
Web
  6
HIDDEN
100
AcDbLine
 10
63.23493490299719
 20
72.46578855809267
 30
0.0
 11
63.3259159029972
 21
72.46578855809267
 31
0.0
  0
LINE
  5
12FF7
330
1F
100
AcDbEntity
  8
Web
  6
HIDDEN
100
AcDbLine
 10
63.23493490299717
 20
72.19578855809266
 30
0.0
 11
63.35191072681727
 21
72.39883633420806
 31
0.0
  0
ARC
  5
12FF8
330
1F
100
AcDbEntity
  8
Web
  6
HIDDEN
100
AcDbCircle
 10
63.3259159029972
 20
72.41381195221078
 30
0.0
 40
0.03
100
AcDbArc
 50
330.0537554473531
 51
0.0
  0
LINE
  5
12FF9
330
1F
100
AcDbEntity
  8
Web
  6
HIDDEN
100
AcDbLine
 10
63.3559159029972
 20
72.41381195221078
 30
0.0
 11
63.3559159029972
 21
72.43578855809267
 31
0.0
  0
ARC
  5
12FFA
330
1F
100
AcDbEntity
  8
Web
  6
HIDDEN
100
AcDbCircle
 10
63.3259159029972
 20
72.43578855809267
 30
0.0
 40
0.03
100
AcDbArc
 50
0.0
 51
90.00000000000323
  0
LINE
  5
12FFB
330
1F
100
AcDbEntity
  8
Web
  6
HIDDEN
100
AcDbLine
 10
63.9849349029972
 20
72.46578855809267
 30
0.0
 11
63.8939539029972
 21
72.46578855809267
 31
0.0
  0
LINE
  5
12FFC
330
1F
100
AcDbEntity
  8
Web
  6
HIDDEN
100
AcDbLine
 10
63.98493490299722
 20
72.19578855809266
 30
0.0
 11
63.86795907917712
 21
72.39883633420806
 31
0.0
  0
ARC
  5
12FFD
330
1F
100
AcDbEntity
  8
Web
  6
HIDDEN
100
AcDbCircle
 10
63.8939539029972
 20
72.41381195221078
 30
0.0
 40
0.03
100
AcDbArc
 50
180.0
 51
209.9462445526458
  0
LINE
  5
12FFE
330
1F
100
AcDbEntity
  8
Web
  6
HIDDEN
100
AcDbLine
 10
63.86395390299719
 20
72.41381195221078
 30
0.0
 11
63.86395390299719
 21
72.43578855809267
 31
0.0
  0
ARC
  5
12FFF
330
1F
100
AcDbEntity
  8
Web
  6
HIDDEN
100
AcDbCircle
 10
63.8939539029972
 20
72.43578855809267
 30
0.0
 40
0.03
100
AcDbArc
 50
89.99999999999674
 51
180.0
  0
LINE
  5
13000
330
1F
100
AcDbEntity
  8
Web
  6
HIDDEN
100
AcDbLine
 10
62.2349349029972
 20
72.75078855809266
 30
0.0
 11
62.2349349029972
 21
72.64078855809268
 31
0.0
  0
LINE
  5
13001
330
1F
100
AcDbEntity
  8
Web
  6
HIDDEN
100
AcDbLine
 10
62.2349349029972
 20
70.21578855809266
 30
0.0
 11
62.2349349029972
 21
69.09078855809267
 31
0.0
  0
LINE
  5
13002
330
1F
100
AcDbEntity
  8
Web
  6
HIDDEN
100
AcDbLine
 10
68.4849349029972
 20
72.46578855809267
 30
0.0
 11
67.48493490299722
 21
72.46578855809267
 31
0.0
  0
LINE
  5
13003
330
1F
100
AcDbEntity
  8
Web
  6
HIDDEN
100
AcDbLine
 10
66.73493490299719
 20
72.46578855809267
 30
0.0
 11
66.27243490299719
 21
72.46578855809267
 31
0.0
  0
LINE
  5
13004
330
1F
100
AcDbEntity
  8
Web
  6
HIDDEN
100
AcDbLine
 10
65.77243490299719
 20
72.46578855809267
 30
0.0
 11
65.6724349029972
 21
72.46578855809267
 31
0.0
  0
LINE
  5
13005
330
1F
100
AcDbEntity
  8
Web
  6
HIDDEN
100
AcDbLine
 10
65.35993490299722
 20
70.96578855809267
 30
0.0
 11
67.7349349029972
 21
70.96578855809267
 31
0.0
  0
LINE
  5
13006
330
1F
100
AcDbEntity
  8
Web
  6
HIDDEN
100
AcDbLine
 10
68.4849349029972
 20
70.21578855809266
 30
0.0
 11
68.4849349029972
 21
72.64078855809268
 31
0.0
  0
ARC
  5
13007
330
1F
100
AcDbEntity
  8
Web
  6
HIDDEN
100
AcDbCircle
 10
67.7349349029972
 20
70.21578855809266
 30
0.0
 40
0.75
100
AcDbArc
 50
0.0
 51
90.0
  0
ARC
  5
13008
330
1F
100
AcDbEntity
  8
Web
  6
HIDDEN
100
AcDbCircle
 10
65.3599349029972
 20
72.02828855809267
 30
0.0
 40
0.3125
100
AcDbArc
 50
270.0
 51
0.0
  0
LINE
  5
13009
330
1F
100
AcDbEntity
  8
Web
  6
HIDDEN
100
AcDbLine
 10
65.6724349029972
 20
72.02828855809267
 30
0.0
 11
65.6724349029972
 21
72.46578855809267
 31
0.0
  0
ARC
  5
1300A
330
1F
100
AcDbEntity
  8
Web
  6
HIDDEN
100
AcDbCircle
 10
66.02243490299719
 20
72.21578855809267
 30
0.0
 40
0.25
100
AcDbArc
 50
180.0
 51
0.0
  0
LINE
  5
1300B
330
1F
100
AcDbEntity
  8
Web
  6
HIDDEN
100
AcDbLine
 10
66.27243490299719
 20
72.21578855809267
 30
0.0
 11
66.27243490299719
 21
72.46578855809267
 31
0.0
  0
LINE
  5
1300C
330
1F
100
AcDbEntity
  8
Web
  6
HIDDEN
100
AcDbLine
 10
65.77243490299719
 20
72.21578855809267
 30
0.0
 11
65.77243490299719
 21
72.46578855809267
 31
0.0
  0
LINE
  5
1300D
330
1F
100
AcDbEntity
  8
Web
  6
HIDDEN
100
AcDbLine
 10
67.48493490299719
 20
72.09078855809266
 30
0.0
 11
67.48493490299719
 21
72.46578855809267
 31
0.0
  0
LINE
  5
1300E
330
1F
100
AcDbEntity
  8
Web
  6
HIDDEN
100
AcDbLine
 10
66.73493490299719
 20
72.09078855809266
 30
0.0
 11
66.73493490299719
 21
72.46578855809267
 31
0.0
  0
ARC
  5
1300F
330
1F
100
AcDbEntity
  8
Web
  6
HIDDEN
100
AcDbCircle
 10
67.1099349029972
 20
72.09078855809266
 30
0.0
 40
0.375
100
AcDbArc
 50
180.0
 51
0.0
  0
LINE
  5
13010
330
1F
100
AcDbEntity
  8
Web
  6
HIDDEN
100
AcDbLine
 10
67.48493490299719
 20
72.46578855809267
 30
0.0
 11
67.39395390299719
 21
72.46578855809267
 31
0.0
  0
LINE
  5
13011
330
1F
100
AcDbEntity
  8
Web
  6
HIDDEN
100
AcDbLine
 10
67.48493490299722
 20
72.19578855809266
 30
0.0
 11
67.36795907917713
 21
72.39883633420806
 31
0.0
  0
ARC
  5
13012
330
1F
100
AcDbEntity
  8
Web
  6
HIDDEN
100
AcDbCircle
 10
67.39395390299719
 20
72.41381195221078
 30
0.0
 40
0.03
100
AcDbArc
 50
180.0
 51
209.9462445526458
  0
LINE
  5
13013
330
1F
100
AcDbEntity
  8
Web
  6
HIDDEN
100
AcDbLine
 10
67.36395390299719
 20
72.41381195221078
 30
0.0
 11
67.36395390299719
 21
72.43578855809267
 31
0.0
  0
ARC
  5
13014
330
1F
100
AcDbEntity
  8
Web
  6
HIDDEN
100
AcDbCircle
 10
67.39395390299719
 20
72.43578855809267
 30
0.0
 40
0.03
100
AcDbArc
 50
89.99999999999674
 51
180.0
  0
LINE
  5
13015
330
1F
100
AcDbEntity
  8
Web
  6
HIDDEN
100
AcDbLine
 10
66.73493490299719
 20
72.46578855809267
 30
0.0
 11
66.82591590299719
 21
72.46578855809267
 31
0.0
  0
LINE
  5
13016
330
1F
100
AcDbEntity
  8
Web
  6
HIDDEN
100
AcDbLine
 10
66.73493490299716
 20
72.19578855809266
 30
0.0
 11
66.85191072681726
 21
72.39883633420806
 31
0.0
  0
ARC
  5
13017
330
1F
100
AcDbEntity
  8
Web
  6
HIDDEN
100
AcDbCircle
 10
66.82591590299719
 20
72.41381195221078
 30
0.0
 40
0.03
100
AcDbArc
 50
330.053755447354
 51
0.0
  0
LINE
  5
13018
330
1F
100
AcDbEntity
  8
Web
  6
HIDDEN
100
AcDbLine
 10
66.85591590299719
 20
72.41381195221078
 30
0.0
 11
66.85591590299719
 21
72.43578855809267
 31
0.0
  0
ARC
  5
13019
330
1F
100
AcDbEntity
  8
Web
  6
HIDDEN
100
AcDbCircle
 10
66.82591590299719
 20
72.43578855809267
 30
0.0
 40
0.03
100
AcDbArc
 50
0.0
 51
90.00000000000323
  0
LINE
  5
1301A
330
1F
100
AcDbEntity
  8
Web
  6
HIDDEN
100
AcDbLine
 10
68.4849349029972
 20
72.75078855809266
 30
0.0
 11
68.4849349029972
 21
72.64078855809268
 31
0.0
  0
LINE
  5
1301B
330
1F
100
AcDbEntity
  8
Web
  6
HIDDEN
100
AcDbLine
 10
68.4849349029972
 20
70.21578855809266
 30
0.0
 11
68.4849349029972
 21
69.09078855809267
 31
0.0
  0
LINE
  5
1301C
330
1F
100
AcDbEntity
  8
Web
  6
HIDDEN
100
AcDbLine
 10
62.2349349029972
 20
65.71578855809267
 30
0.0
 11
63.23493490299717
 21
65.71578855809267
 31
0.0
  0
LINE
  5
1301D
330
1F
100
AcDbEntity
  8
Web
  6
HIDDEN
100
AcDbLine
 10
63.9849349029972
 20
65.71578855809267
 30
0.0
 11
64.4474349029972
 21
65.71578855809267
 31
0.0
  0
LINE
  5
1301E
330
1F
100
AcDbEntity
  8
Web
  6
HIDDEN
100
AcDbLine
 10
64.9474349029972
 20
65.71578855809267
 30
0.0
 11
65.0474349029972
 21
65.71578855809267
 31
0.0
  0
LINE
  5
1301F
330
1F
100
AcDbEntity
  8
Web
  6
HIDDEN
100
AcDbLine
 10
65.35993490299716
 20
67.21578855809267
 30
0.0
 11
62.98493490299719
 21
67.21578855809267
 31
0.0
  0
LINE
  5
13020
330
1F
100
AcDbEntity
  8
Web
  6
HIDDEN
100
AcDbLine
 10
62.2349349029972
 20
67.96578855809267
 30
0.0
 11
62.2349349029972
 21
65.54078855809267
 31
0.0
  0
ARC
  5
13021
330
1F
100
AcDbEntity
  8
Web
  6
HIDDEN
100
AcDbCircle
 10
62.98493490299719
 20
67.96578855809267
 30
0.0
 40
0.75
100
AcDbArc
 50
180.0
 51
270.0
  0
ARC
  5
13022
330
1F
100
AcDbEntity
  8
Web
  6
HIDDEN
100
AcDbCircle
 10
65.3599349029972
 20
66.15328855809266
 30
0.0
 40
0.3125
100
AcDbArc
 50
90.0
 51
180.0
  0
LINE
  5
13023
330
1F
100
AcDbEntity
  8
Web
  6
HIDDEN
100
AcDbLine
 10
65.0474349029972
 20
66.15328855809266
 30
0.0
 11
65.0474349029972
 21
65.71578855809267
 31
0.0
  0
ARC
  5
13024
330
1F
100
AcDbEntity
  8
Web
  6
HIDDEN
100
AcDbCircle
 10
64.6974349029972
 20
65.96578855809267
 30
0.0
 40
0.25
100
AcDbArc
 50
0.0
 51
180.0
  0
LINE
  5
13025
330
1F
100
AcDbEntity
  8
Web
  6
HIDDEN
100
AcDbLine
 10
64.4474349029972
 20
65.96578855809267
 30
0.0
 11
64.4474349029972
 21
65.71578855809267
 31
0.0
  0
LINE
  5
13026
330
1F
100
AcDbEntity
  8
Web
  6
HIDDEN
100
AcDbLine
 10
64.9474349029972
 20
65.96578855809267
 30
0.0
 11
64.9474349029972
 21
65.71578855809267
 31
0.0
  0
LINE
  5
13027
330
1F
100
AcDbEntity
  8
Web
  6
HIDDEN
100
AcDbLine
 10
63.23493490299719
 20
66.09078855809267
 30
0.0
 11
63.23493490299719
 21
65.71578855809267
 31
0.0
  0
LINE
  5
13028
330
1F
100
AcDbEntity
  8
Web
  6
HIDDEN
100
AcDbLine
 10
63.9849349029972
 20
66.09078855809267
 30
0.0
 11
63.9849349029972
 21
65.71578855809267
 31
0.0
  0
ARC
  5
13029
330
1F
100
AcDbEntity
  8
Web
  6
HIDDEN
100
AcDbCircle
 10
63.60993490299719
 20
66.09078855809267
 30
0.0
 40
0.375
100
AcDbArc
 50
0.0
 51
180.0
  0
LINE
  5
1302A
330
1F
100
AcDbEntity
  8
Web
  6
HIDDEN
100
AcDbLine
 10
63.23493490299719
 20
65.71578855809267
 30
0.0
 11
63.3259159029972
 21
65.71578855809267
 31
0.0
  0
LINE
  5
1302B
330
1F
100
AcDbEntity
  8
Web
  6
HIDDEN
100
AcDbLine
 10
63.23493490299717
 20
65.98578855809268
 30
0.0
 11
63.35191072681727
 21
65.78274078197731
 31
0.0
  0
ARC
  5
1302C
330
1F
100
AcDbEntity
  8
Web
  6
HIDDEN
100
AcDbCircle
 10
63.3259159029972
 20
65.76776516397456
 30
0.0
 40
0.03
100
AcDbArc
 50
0.0
 51
29.9462445526469
  0
LINE
  5
1302D
330
1F
100
AcDbEntity
  8
Web
  6
HIDDEN
100
AcDbLine
 10
63.3559159029972
 20
65.76776516397456
 30
0.0
 11
63.3559159029972
 21
65.74578855809267
 31
0.0
  0
ARC
  5
1302E
330
1F
100
AcDbEntity
  8
Web
  6
HIDDEN
100
AcDbCircle
 10
63.3259159029972
 20
65.74578855809267
 30
0.0
 40
0.03
100
AcDbArc
 50
269.9999999999968
 51
0.0
  0
LINE
  5
1302F
330
1F
100
AcDbEntity
  8
Web
  6
HIDDEN
100
AcDbLine
 10
63.9849349029972
 20
65.71578855809267
 30
0.0
 11
63.8939539029972
 21
65.71578855809267
 31
0.0
  0
LINE
  5
13030
330
1F
100
AcDbEntity
  8
Web
  6
HIDDEN
100
AcDbLine
 10
63.98493490299722
 20
65.98578855809268
 30
0.0
 11
63.86795907917712
 21
65.78274078197731
 31
0.0
  0
ARC
  5
13031
330
1F
100
AcDbEntity
  8
Web
  6
HIDDEN
100
AcDbCircle
 10
63.8939539029972
 20
65.76776516397456
 30
0.0
 40
0.03
100
AcDbArc
 50
150.0537554473531
 51
180.0
  0
LINE
  5
13032
330
1F
100
AcDbEntity
  8
Web
  6
HIDDEN
100
AcDbLine
 10
63.86395390299719
 20
65.76776516397456
 30
0.0
 11
63.86395390299719
 21
65.74578855809267
 31
0.0
  0
ARC
  5
13033
330
1F
100
AcDbEntity
  8
Web
  6
HIDDEN
100
AcDbCircle
 10
63.8939539029972
 20
65.74578855809267
 30
0.0
 40
0.03
100
AcDbArc
 50
180.0
 51
270.0000000000033
  0
LINE
  5
13034
330
1F
100
AcDbEntity
  8
Web
  6
HIDDEN
100
AcDbLine
 10
62.2349349029972
 20
65.43078855809267
 30
0.0
 11
62.2349349029972
 21
65.54078855809267
 31
0.0
  0
LINE
  5
13035
330
1F
100
AcDbEntity
  8
Web
  6
HIDDEN
100
AcDbLine
 10
62.2349349029972
 20
67.96578855809267
 30
0.0
 11
62.2349349029972
 21
69.09078855809267
 31
0.0
  0
LINE
  5
13036
330
1F
100
AcDbEntity
  8
Web
  6
HIDDEN
100
AcDbLine
 10
68.4849349029972
 20
65.71578855809265
 30
0.0
 11
67.48493490299722
 21
65.71578855809267
 31
0.0
  0
LINE
  5
13037
330
1F
100
AcDbEntity
  8
Web
  6
HIDDEN
100
AcDbLine
 10
66.73493490299719
 20
65.71578855809267
 30
0.0
 11
66.27243490299719
 21
65.71578855809267
 31
0.0
  0
LINE
  5
13038
330
1F
100
AcDbEntity
  8
Web
  6
HIDDEN
100
AcDbLine
 10
65.77243490299719
 20
65.71578855809267
 30
0.0
 11
65.6724349029972
 21
65.71578855809267
 31
0.0
  0
LINE
  5
13039
330
1F
100
AcDbEntity
  8
Web
  6
HIDDEN
100
AcDbLine
 10
65.35993490299722
 20
67.21578855809267
 30
0.0
 11
67.7349349029972
 21
67.21578855809267
 31
0.0
  0
LINE
  5
1303A
330
1F
100
AcDbEntity
  8
Web
  6
HIDDEN
100
AcDbLine
 10
68.4849349029972
 20
67.96578855809265
 30
0.0
 11
68.4849349029972
 21
65.54078855809265
 31
0.0
  0
ARC
  5
1303B
330
1F
100
AcDbEntity
  8
Web
  6
HIDDEN
100
AcDbCircle
 10
67.7349349029972
 20
67.96578855809267
 30
0.0
 40
0.75
100
AcDbArc
 50
270.0
 51
0.0
  0
ARC
  5
1303C
330
1F
100
AcDbEntity
  8
Web
  6
HIDDEN
100
AcDbCircle
 10
65.3599349029972
 20
66.15328855809266
 30
0.0
 40
0.3125
100
AcDbArc
 50
0.0
 51
90.0
  0
LINE
  5
1303D
330
1F
100
AcDbEntity
  8
Web
  6
HIDDEN
100
AcDbLine
 10
65.6724349029972
 20
66.15328855809266
 30
0.0
 11
65.6724349029972
 21
65.71578855809267
 31
0.0
  0
ARC
  5
1303E
330
1F
100
AcDbEntity
  8
Web
  6
HIDDEN
100
AcDbCircle
 10
66.02243490299719
 20
65.96578855809267
 30
0.0
 40
0.25
100
AcDbArc
 50
0.0
 51
180.0
  0
LINE
  5
1303F
330
1F
100
AcDbEntity
  8
Web
  6
HIDDEN
100
AcDbLine
 10
66.27243490299719
 20
65.96578855809267
 30
0.0
 11
66.27243490299719
 21
65.71578855809267
 31
0.0
  0
LINE
  5
13040
330
1F
100
AcDbEntity
  8
Web
  6
HIDDEN
100
AcDbLine
 10
65.77243490299719
 20
65.96578855809267
 30
0.0
 11
65.77243490299719
 21
65.71578855809267
 31
0.0
  0
LINE
  5
13041
330
1F
100
AcDbEntity
  8
Web
  6
HIDDEN
100
AcDbLine
 10
67.48493490299719
 20
66.09078855809267
 30
0.0
 11
67.48493490299719
 21
65.71578855809267
 31
0.0
  0
LINE
  5
13042
330
1F
100
AcDbEntity
  8
Web
  6
HIDDEN
100
AcDbLine
 10
66.73493490299719
 20
66.09078855809267
 30
0.0
 11
66.73493490299719
 21
65.71578855809267
 31
0.0
  0
ARC
  5
13043
330
1F
100
AcDbEntity
  8
Web
  6
HIDDEN
100
AcDbCircle
 10
67.1099349029972
 20
66.09078855809267
 30
0.0
 40
0.375
100
AcDbArc
 50
0.0
 51
180.0
  0
LINE
  5
13044
330
1F
100
AcDbEntity
  8
Web
  6
HIDDEN
100
AcDbLine
 10
67.48493490299719
 20
65.71578855809267
 30
0.0
 11
67.39395390299719
 21
65.71578855809267
 31
0.0
  0
LINE
  5
13045
330
1F
100
AcDbEntity
  8
Web
  6
HIDDEN
100
AcDbLine
 10
67.48493490299722
 20
65.98578855809268
 30
0.0
 11
67.36795907917713
 21
65.78274078197729
 31
0.0
  0
ARC
  5
13046
330
1F
100
AcDbEntity
  8
Web
  6
HIDDEN
100
AcDbCircle
 10
67.39395390299719
 20
65.76776516397456
 30
0.0
 40
0.03
100
AcDbArc
 50
150.0537554473531
 51
180.0
  0
LINE
  5
13047
330
1F
100
AcDbEntity
  8
Web
  6
HIDDEN
100
AcDbLine
 10
67.36395390299719
 20
65.76776516397456
 30
0.0
 11
67.36395390299719
 21
65.74578855809267
 31
0.0
  0
ARC
  5
13048
330
1F
100
AcDbEntity
  8
Web
  6
HIDDEN
100
AcDbCircle
 10
67.39395390299719
 20
65.74578855809267
 30
0.0
 40
0.03
100
AcDbArc
 50
180.0
 51
270.0000000000033
  0
LINE
  5
13049
330
1F
100
AcDbEntity
  8
Web
  6
HIDDEN
100
AcDbLine
 10
66.73493490299719
 20
65.71578855809267
 30
0.0
 11
66.82591590299719
 21
65.71578855809267
 31
0.0
  0
LINE
  5
1304A
330
1F
100
AcDbEntity
  8
Web
  6
HIDDEN
100
AcDbLine
 10
66.73493490299716
 20
65.98578855809268
 30
0.0
 11
66.85191072681726
 21
65.78274078197729
 31
0.0
  0
ARC
  5
1304B
330
1F
100
AcDbEntity
  8
Web
  6
HIDDEN
100
AcDbCircle
 10
66.82591590299719
 20
65.76776516397456
 30
0.0
 40
0.03
100
AcDbArc
 50
0.0
 51
29.94624455264576
  0
LINE
  5
1304C
330
1F
100
AcDbEntity
  8
Web
  6
HIDDEN
100
AcDbLine
 10
66.85591590299719
 20
65.76776516397456
 30
0.0
 11
66.85591590299719
 21
65.74578855809267
 31
0.0
  0
ARC
  5
1304D
330
1F
100
AcDbEntity
  8
Web
  6
HIDDEN
100
AcDbCircle
 10
66.82591590299719
 20
65.74578855809267
 30
0.0
 40
0.03
100
AcDbArc
 50
269.9999999999968
 51
0.0
  0
LINE
  5
1304E
330
1F
100
AcDbEntity
  8
Web
  6
HIDDEN
100
AcDbLine
 10
68.4849349029972
 20
65.43078855809266
 30
0.0
 11
68.4849349029972
 21
65.54078855809265
 31
0.0
  0
LINE
  5
1304F
330
1F
100
AcDbEntity
  8
Web
  6
HIDDEN
100
AcDbLine
 10
68.4849349029972
 20
67.96578855809265
 30
0.0
 11
68.4849349029972
 21
69.09078855809266
 31
0.0
  0
LINE
  5
13050
330
1F
100
AcDbEntity
  8
Conc
100
AcDbLine
 10
78.48493490299722
 20
45.09078855809268
 30
0.0
 11
70.85993490299728
 21
45.09078855809268
 31
0.0
  0
LINE
  5
13051
330
1F
100
AcDbEntity
  8
Conc
100
AcDbLine
 10
68.85993490299728
 20
45.09078855809268
 30
0.0
 11
62.2349349029972
 21
45.09078855809268
 31
0.0
  0
LINE
  5
13052
330
1F
100
AcDbEntity
  8
Conc
100
AcDbLine
 10
71.23493490299722
 20
77.09078855809266
 30
0.0
 11
76.46662507848805
 21
77.09078855809266
 31
0.0
  0
LINE
  5
13053
102
{ACAD_REACTORS
330
12FDE
102
}
330
1F
100
AcDbEntity
  8
steel
100
AcDbLine
 10
73.45324472750639
 20
77.09078855809266
 30
0.0
 11
73.2532447275064
 21
77.09078855809266
 31
0.0
  0
LINE
  5
13054
102
{ACAD_REACTORS
330
12FDA
102
}
330
1F
100
AcDbEntity
  8
steel
100
AcDbLine
 10
76.46662507848805
 20
77.09078855809266
 30
0.0
 11
76.26662507848806
 21
77.09078855809266
 31
0.0
  0
LINE
  5
13055
102
{ACAD_REACTORS
330
12FDA
102
}
330
1F
100
AcDbEntity
  8
steel
100
AcDbLine
 10
76.46662507848805
 20
62.09078855809266
 30
0.0
 11
76.26662507848806
 21
62.09078855809266
 31
0.0
  0
LINE
  5
13056
102
{ACAD_REACTORS
330
12FDE
102
}
330
1F
100
AcDbEntity
  8
steel
100
AcDbLine
 10
73.45324472750639
 20
62.09078855809266
 30
0.0
 11
73.2532447275064
 21
62.09078855809266
 31
0.0
  0
LWPOLYLINE
  5
13057
330
1F
100
AcDbEntity
  8
Dim
  6
Continuous
100
AcDbPolyline
 90
        6
 70
     0
 43
0.0
 10
58.4849349029972
 20
45.09078855809268
 10
68.85993490299728
 20
45.09078855809266
 10
69.35993490299733
 20
43.71704984836533
 10
70.35993490299734
 20
46.46452726781994
 10
70.85993490299728
 20
45.09078855809266
 10
82.23493490299722
 20
45.09078855809268
  0
LWPOLYLINE
  5
13058
330
1F
100
AcDbEntity
  8
Dim
  6
Continuous
100
AcDbPolyline
 90
        6
 70
     0
 43
0.0
 10
58.4849349029972
 20
77.09078855809266
 10
66.97577999074269
 20
77.09078855809268
 10
67.4757799907427
 20
75.71704984836536
 10
68.47577999074269
 20
78.46452726781997
 10
68.97577999074269
 20
77.09078855809268
 10
77.46662507848805
 20
77.09078855809266
  0
SPLINE
  5
13059
330
1F
100
AcDbEntity
  8
Conc
100
AcDbSpline
210
0.0
220
0.0
230
1.0
 70
  1064
 71
     3
 72
    14
 73
    10
 74
     8
 42
0.000000001
 43
0.0000000001
 44
0.0000000001
 40
0.0
 40
0.0
 40
0.0
 40
0.0
 40
0.6703211827463657
 40
2.016162706376953
 40
2.603929591584979
 40
3.371732827816499
 40
4.359271825569063
 40
5.274604331261152
 40
6.350177246842354
 40
6.350177246842354
 40
6.350177246842354
 40
6.350177246842354
 10
62.2349349029972
 20
61.09078855809267
 30
0.0
 10
62.4460259341889
 20
60.99885167921139
 30
0.0
 10
63.08093629610777
 20
60.7223279599673
 30
0.0
 10
63.96986695122117
 20
61.22801633374784
 30
0.0
 10
64.84113954531757
 20
60.7968314339997
 30
0.0
 10
65.60489175126082
 20
61.22363233736997
 30
0.0
 10
66.4967329223297
 20
60.78794740575491
 30
0.0
 10
67.4558785766683
 20
61.23388822370602
 30
0.0
 10
68.12399150421154
 20
61.1409810289517
 30
0.0
 10
68.48493490299722
 20
61.09078855809267
 30
0.0
 11
62.2349349029972
 21
61.09078855809267
 31
0.0
 11
62.87410724982374
 21
60.88882519732954
 31
0.0
 11
64.21099607961832
 21
61.0438015293895
 31
0.0
 11
64.7839479386322
 21
60.91266770995417
 31
0.0
 11
65.53594803575243
 21
61.06764404201413
 31
0.0
 11
66.51474177984892
 21
60.93651022257876
 31
0.0
 11
67.40998018935124
 21
61.12725032357565
 31
0.0
 11
68.48493490299722
 21
61.09078855809267
 31
0.0
  0
HATCH
  5
1305A
330
1F
100
AcDbEntity
  8
Rebar
100
AcDbHatch
 10
0.0
 20
0.0
 30
0.0
210
0.0
220
0.0
230
1.0
  2
SOLID
 70
     1
 71
     1
 91
        1
 92
        1
 93
        1
 72
     2
 10
65.35993490299716
 20
72.09078855809265
 40
0.28125
 50
0.0
 51
360.0
 73
     1
 97
        1
330
1305B
 75
     0
 76
     1
 98
        1
 10
-43.18423118185987
 20
23.36250989897073
450
        0
451
        0
460
0.0
461
0.0
452
        0
462
0.0
453
        0
470

1001
ACAD
1010
144.2255547798094
1020
64.47103821216257
1030
0.0
  0
CIRCLE
  5
1305B
102
{ACAD_REACTORS
330
1305A
330
13065
102
}
330
1F
100
AcDbEntity
  8
Rebar
100
AcDbCircle
 10
65.35993490299716
 20
72.09078855809265
 30
0.0
 40
0.28125
  0
LWPOLYLINE
  5
1305C
330
1F
100
AcDbEntity
  8
Rebar
370
    30
100
AcDbPolyline
 90
        2
 70
     0
 43
0.2
 10
65.04743490299722
 20
77.09078855809268
 10
65.04743490299722
 20
60.94715339999033
  0
LINE
  5
1305D
102
{ACAD_REACTORS
330
1306D
102
}
330
1F
100
AcDbEntity
  8
drywall
100
AcDbLine
 10
59.28727590607002
 20
77.09078855809266
 30
0.0
 11
59.28727590607
 21
45.09078855809268
 31
0.0
  0
LEADER
  5
1305E
102
{ACAD_XDICTIONARY
360
13060
102
}
102
{ACAD_REACTORS
330
13061
102
}
330
1F
100
AcDbEntity
  8
Dim
100
AcDbLeader
  3
FBR
 73
     0
 40
2.392857142857142
 41
7.499999999999998
 76
     2
 10
63.23493490299719
 20
73.79920113390358
 30
0.0
 10
40.72867692360008
 20
78.48577225865075
 30
0.0
340
1305F
213
0.0
223
0.375
233
0.0
1001
ACAD
1000
DSTYLE
1002
{
1070
   147
1040
0.09
1070
    77
1070
     0
1002
}
  0
MTEXT
  5
1305F
102
{ACAD_REACTORS
330
1305E
102
}
330
1F
100
AcDbEntity
  8
Dim
100
AcDbMText
 10
40.63867692360008
 20
78.11077225865076
 30
0.0
 40
0.75
 41
12.85407191555159
 46
0.0
 71
     9
 72
     1
  1
\A1;Vertical reinf.\P(see Notes)
  7
Logix
 73
     1
 44
1.0
  0
LEADER
  5
13062
102
{ACAD_XDICTIONARY
360
13064
102
}
102
{ACAD_REACTORS
330
13065
102
}
330
1F
100
AcDbEntity
  8
Dim
100
AcDbLeader
  3
FBR
 73
     0
 40
2.392857142857142
 41
8.892857142857144
 76
     2
 10
65.35993490299716
 20
72.09078855809265
 30
0.0
 10
40.72867692360008
 20
72.09078855809266
 30
0.0
340
13063
213
0.0
223
0.375
233
0.0
1001
ACAD
1000
DSTYLE
1002
{
1070
   147
1040
0.09
1070
    77
1070
     0
1002
}
  0
MTEXT
  5
13063
102
{ACAD_REACTORS
330
13062
102
}
330
1F
100
AcDbEntity
  8
Dim
100
AcDbMText
 10
40.63867692360008
 20
71.71578855809267
 30
0.0
 40
0.75
 41
12.85407191555159
 46
0.0
 71
     9
 72
     1
  1
\A1;Horizontal reinf.\P(See Notes)
  7
Logix
 73
     1
 44
1.0
  0
LEADER
  5
13066
102
{ACAD_XDICTIONARY
360
13068
102
}
102
{ACAD_REACTORS
330
13069
102
}
330
1F
100
AcDbEntity
  8
Dim
100
AcDbLeader
  3
FBR
 73
     0
 40
2.392857142857142
 41
13.32142857142856
 76
     2
 10
76.46662507848805
 20
73.42420113390358
 30
0.0
 10
98.65834509017638
 20
73.42420113390358
 30
0.0
340
13067
213
0.0
223
-0.375
233
0.0
1001
ACAD
1000
DSTYLE
1002
{
1070
   147
1040
0.09
1070
    77
1070
     0
1002
}
  0
MTEXT
  5
13067
102
{ACAD_REACTORS
330
13066
102
}
330
1F
100
AcDbEntity
  8
Dim
100
AcDbMText
 10
98.74834509017638
 20
73.79920113390358
 30
0.0
 40
0.75
 41
13.78402000640637
 46
0.0
 71
     1
 72
     1
  1
Steel column, as specfiedd (WWF shown)
  7
Logix
 73
     1
 44
1.0
1001
ACAD
1000
ACAD_MTEXT_DEFINED_HEIGHT_BEGIN
1070
    46
1040
0.0
1000
ACAD_MTEXT_DEFINED_HEIGHT_END
  0
LEADER
  5
1306A
102
{ACAD_XDICTIONARY
360
1306C
102
}
102
{ACAD_REACTORS
330
1306D
102
}
330
1F
100
AcDbEntity
  8
Dim
100
AcDbLeader
  3
FBR
 73
     0
 40
2.25
 41
8.035714285714286
 76
     2
 10
59.28727590607001
 20
68.4876938400173
 30
0.0
 10
40.72867692360008
 20
68.4876938400173
 30
0.0
340
1306B
213
0.0
223
0.375
233
0.0
1001
ACAD
1000
DSTYLE
1002
{
1070
   147
1040
0.09
1070
    77
1070
     0
1002
}
  0
MTEXT
  5
1306B
102
{ACAD_REACTORS
330
1306A
102
}
330
1F
100
AcDbEntity
  8
Dim
100
AcDbMText
 10
40.63867692360008
 20
68.1126938400173
 30
0.0
 40
0.75
 41
12.85407191555159
 46
0.0
 71
     9
 72
     1
  1
Exterior finish,\Pas specified
  7
Logix
 73
     1
 44
1.0
1001
ACAD
1000
ACAD_MTEXT_DEFINED_HEIGHT_BEGIN
1070
    46
1040
0.0
1000
ACAD_MTEXT_DEFINED_HEIGHT_END
  0
LEADER
  5
1306E
330
1F
100
AcDbEntity
  8
Dim
100
AcDbLeader
  3
FBR
 73
     0
 40
2.25
 41
10.25000000000001
 76
     2
 10
60.94641916005073
 20
65.19729976009739
 30
0.0
 10
40.72867692360008
 20
65.19729976009739
 30
0.0
340
1306F
213
0.0
223
0.375
233
0.0
1001
ACAD
1000
DSTYLE
1002
{
1070
   147
1040
0.09
1070
    77
1070
     0
1002
}
  0
MTEXT
  5
1306F
102
{ACAD_REACTORS
330
1306E
102
}
330
1F
100
AcDbEntity
  8
Dim
100
AcDbMText
 10
40.63867692360008
 20
64.82229976009739
 30
0.0
 40
0.75
 41
12.85407191555159
 46
0.0
 71
     9
 72
     1
  1
LOGIX Standard \PForm as specified
  7
Logix
 73
     1
 44
1.0
1001
ACAD
1000
ACAD_MTEXT_DEFINED_HEIGHT_BEGIN
1070
    46
1040
0.0
1000
ACAD_MTEXT_DEFINED_HEIGHT_END
  0
LEADER
  5
13070
330
1F
100
AcDbEntity
  8
Dim
100
AcDbLeader
  3
FBR
 73
     0
 40
0.7500000000000002
 41
7.857142857142858
 76
     2
 10
79.80400360156696
 20
52.40615169223906
 30
0.0
 10
98.65834509017638
 20
52.40615169223906
 30
0.0
340
13071
213
0.0
223
-0.375
233
0.0
1001
ACAD
1000
DSTYLE
1002
{
1070
   147
1040
0.09
1070
    77
1070
     0
1002
}
  0
MTEXT
  5
13071
102
{ACAD_REACTORS
330
13070
102
}
330
1F
100
AcDbEntity
  8
Dim
100
AcDbMText
 10
98.74834509017638
 20
52.78115169223906
 30
0.0
 40
0.75
 41
12.85407191555159
 46
0.0
 71
     1
 72
     1
  1
\A1;LOGIX Pilaster
  7
Logix
 73
     1
 44
1.0
  0
LEADER
  5
13072
102
{ACAD_XDICTIONARY
360
13074
102
}
102
{ACAD_REACTORS
330
13075
102
}
330
1F
100
AcDbEntity
  8
Dim
100
AcDbLeader
  3
FBR
 73
     0
 40
2.25
 41
7.464285714285711
 76
     2
 10
77.48493490299722
 20
55.39603925382175
 30
0.0
 10
98.65834509017638
 20
56.65033375403329
 30
0.0
340
13073
213
0.0
223
-0.375
233
0.0
1001
ACAD
1000
DSTYLE
1002
{
1070
   147
1040
0.09
1070
    77
1070
     0
1002
}
  0
MTEXT
  5
13073
102
{ACAD_REACTORS
330
13072
102
}
330
1F
100
AcDbEntity
  8
Dim
100
AcDbMText
 10
98.74834509017638
 20
57.0253337540333
 30
0.0
 40
0.75
 41
12.85407191555159
 46
0.0
 71
     1
 72
     1
  1
Pilaster reinf.\Pas specified
  7
Logix
 73
     1
 44
1.0
1001
ACAD
1000
ACAD_MTEXT_DEFINED_HEIGHT_BEGIN
1070
    46
1040
0.0
1000
ACAD_MTEXT_DEFINED_HEIGHT_END
  0
LEADER
  5
13076
102
{ACAD_XDICTIONARY
360
13078
102
}
102
{ACAD_REACTORS
330
13079
102
}
330
1F
100
AcDbEntity
  8
Dim
100
AcDbLeader
  3
FBR
 73
     0
 74
     0
 75
     1
 40
2.25
 41
11.71428571428571
 76
     3
 10
77.35993490299725
 20
62.14078855809266
 30
0.0
 10
97.90834509017637
 20
70.20924667792923
 30
0.0
 10
98.65834509017638
 20
70.20924667792923
 30
0.0
340
13077
213
0.0
223
-0.375
233
0.0
1001
ACAD
1000
DSTYLE
1002
{
1070
   147
1040
0.09
1070
    77
1070
     0
1002
}
  0
MTEXT
  5
13077
102
{ACAD_REACTORS
330
13076
102
}
330
1F
100
AcDbEntity
  8
Dim
100
AcDbMText
 10
98.74834509017638
 20
70.58424667792923
 30
0.0
 40
0.75
 41
12.85407191555159
 46
0.0
 71
     1
 72
     1
  1
\A1;Leveling nut & base plate
  7
Logix
 73
     1
 44
1.0
  0
LEADER
  5
1307C
102
{ACAD_XDICTIONARY
360
1307E
102
}
102
{ACAD_REACTORS
330
1307F
102
}
330
1F
100
AcDbEntity
  8
Dim
100
AcDbLeader
  3
FBR
 73
     0
 40
0.75
 41
2.821428571428571
 76
     2
 10
78.23493490299722
 20
61.34078855809267
 30
0.0
 10
98.65834509017638
 20
66.66469109071044
 30
0.0
340
1307D
213
0.0
223
-0.375
233
0.0
1001
ACAD
1000
DSTYLE
1002
{
1070
   147
1040
0.09
1070
    77
1070
     0
1002
}
  0
MTEXT
  5
1307D
102
{ACAD_REACTORS
330
1307C
102
}
330
1F
100
AcDbEntity
  8
Dim
100
AcDbMText
 10
98.74834509017638
 20
67.03969109071045
 30
0.0
 40
0.75
 41
12.85407191555159
 46
0.0
 71
     1
 72
     1
  1
\A1;Grout
  7
Logix
 73
     1
 44
1.0
  0
LEADER
  5
13080
102
{ACAD_XDICTIONARY
360
13082
102
}
102
{ACAD_REACTORS
330
13083
102
}
330
1F
100
AcDbEntity
  8
Dim
100
AcDbLeader
  3
FBR
 73
     0
 40
2.25
 41
9.214285714285713
 76
     2
 10
76.98493490299725
 20
58.83637034605863
 30
0.0
 10
98.65834509017638
 20
63.35435193059442
 30
0.0
340
13081
213
0.0
223
-0.375
233
0.0
1001
ACAD
1000
DSTYLE
1002
{
1070
   147
1040
0.09
1070
    77
1070
     0
1002
}
  0
MTEXT
  5
13081
102
{ACAD_REACTORS
330
13080
102
}
330
1F
100
AcDbEntity
  8
Dim
100
AcDbMText
 10
98.74834509017638
 20
63.72935193059442
 30
0.0
 40
0.75
 41
12.85407191555159
 46
0.0
 71
     1
 72
     1
  1
Anchor rods, as specified
  7
Logix
 73
     1
 44
1.0
1001
ACAD
1000
ACAD_MTEXT_DEFINED_HEIGHT_BEGIN
1070
    46
1040
0.0
1000
ACAD_MTEXT_DEFINED_HEIGHT_END
  0
MTEXT
  5
131AB
330
1F
100
AcDbEntity
  8
Text
100
AcDbMText
 10
30.96060168867535
 20
19.2093437418837
 30
0.0
 40
0.9
 41
50.6598514109634
 46
7.996180640979179
 71
     1
 72
     5
  1
{\fSansSerif|b1|i0|c2|p2;\LNOTES:}\P\PFor reinforcement details in walls, see Section 6 - Engineering in the LOGIX Product Manual.
  7
Logix
 73
     1
 44
1.0
1001
ACAD
1000
ACAD_MTEXT_DEFINED_HEIGHT_BEGIN
1070
    46
1040
7.996180640979179
1000
ACAD_MTEXT_DEFINED_HEIGHT_END
  0
MTEXT
  5
13DE4
102
{ACAD_REACTORS
330
13E04
102
}
330
1F
100
AcDbEntity
  8
Title Block
100
AcDbMText
 10
36.80142024196546
 20
7.764784200012067
 30
0.0
 40
3.007588226546747
 41
15.56946784513218
 46
0.0
 71
     5
 72
     5
  1
{\fSansSerif|b1|i0|c2|p2;LOGIX}
 73
     1
 44
1.0
  0
HATCH
  5
13DE5
102
{ACAD_REACTORS
330
13E04
102
}
330
1F
100
AcDbEntity
  8
Title Block
 62
    12
420
 14024704
100
AcDbHatch
 10
0.0
 20
0.0
 30
0.0
210
0.0
220
0.0
230
1.0
  2
SOLID
 70
     1
 71
     0
 91
        1
 92
        1
 93
        4
 72
     1
 10
40.06148046733351
 20
9.667717395362664
 11
40.06148046733355
 21
10.29349519823718
 72
     1
 10
40.06148046733355
 20
10.29349519823718
 11
39.43212788242934
 21
10.29784174925668
 72
     1
 10
39.43212788242934
 20
10.29784174925668
 11
39.43212788242934
 21
9.672063946382166
 72
     1
 10
39.43212788242934
 20
9.672063946382165
 11
40.06148046733351
 21
9.667717395362664
 97
        0
 75
     0
 76
     1
 98
        1
 10
40.23719809470963
 20
9.888229720086332
450
        0
451
        0
460
0.0
461
0.0
452
        0
462
0.0
453
        0
470

  0
TEXT
  5
13DE6
102
{ACAD_REACTORS
330
13E04
102
}
330
1F
100
AcDbEntity
  8
Title Block
100
AcDbText
 10
32.40684760860415
 20
5.670585470192468
 30
0.0
 40
0.4784799451324372
  1
INSULATED CONCRETE FORMS
  7
TITLE
100
AcDbText
  0
LWPOLYLINE
  5
13DE7
102
{ACAD_REACTORS
330
13E04
102
}
330
1F
100
AcDbEntity
  8
Title Block
100
AcDbPolyline
 90
        3
 70
     0
 43
0.5468342230084997
 10
29.64121328948634
 20
6.985159371451645
 10
29.64121328948634
 20
5.394831039654119
 10
32.48823761265456
 20
5.394831039654119
  0
HATCH
  5
13DE8
102
{ACAD_REACTORS
330
13E04
102
}
330
1F
100
AcDbEntity
  8
Title Block
 62
    12
420
 14024704
100
AcDbHatch
 10
0.0
 20
0.0
 30
0.0
210
0.0
220
0.0
230
1.0
  2
SOLID
 70
     1
 71
     0
 91
        1
 92
        1
 93
        4
 72
     1
 10
30.55128105989371
 20
5.665502261828102
 11
30.55128105989371
 21
6.300482525252052
 72
     1
 10
30.55128105989371
 20
6.300482525252053
 11
29.91008578825942
 21
6.300482525252053
 72
     1
 10
29.91008578825942
 20
6.300482525252053
 11
29.91008578825942
 21
5.665502261828104
 72
     1
 10
29.91008578825942
 20
5.665502261828102
 11
30.5512810598937
 21
5.665502261828102
 97
        0
 75
     0
 76
     1
 98
        1
 10
30.33257886593992
 20
5.962880311255881
450
        0
451
        0
460
0.0
461
0.0
452
        0
462
0.0
453
        0
470

  0
LWPOLYLINE
  5
13DE9
102
{ACAD_REACTORS
330
13E04
102
}
330
1F
100
AcDbEntity
  8
Title Block
 62
    10
100
AcDbPolyline
 90
        4
 70
     1
 43
0.0
 10
30.55128105989371
 20
5.665502261828105
 10
29.91008578825942
 20
5.665502261828105
 10
29.91008578825942
 20
6.300482525252057
 10
30.55128105989371
 20
6.300482525252057
  0
MTEXT
  5
13DEA
102
{ACAD_XDICTIONARY
360
13DEB
102
}
102
{ACAD_REACTORS
330
13E04
102
}
330
1F
100
AcDbEntity
  8
Title Block
100
AcDbMText
 10
44.41341271311492
 20
9.263863770231649
 30
0.0
 40
0.7291122973446662
 41
1.434444221211763
 46
0.0
 71
     3
 72
     5
  1
{\fArial|b0|i0|c0|p34;\H1.0833x;®}
 73
     1
 44
1.0
  0
MTEXT
  5
13DEC
102
{ACAD_XDICTIONARY
360
13DED
102
}
102
{ACAD_REACTORS
330
13E04
102
}
330
1F
100
AcDbEntity
  8
0
 48
0.01
100
AcDbMText
 10
29.34068713757962
 20
4.434261153705559
 30
0.0
 40
0.9302832220866575
 41
15.04930642254516
 46
0.0
 71
     1
 72
     5
  1
\pi0.07421;{\C256;\c16777215;Build Anything \fCalibri|b1|i0|c0|p34;Better.}
  7
Logix
 73
     1
 44
1.0
 90
        1
 63
    83
 45
1.5
441
        0
1001
AcadAnnotative
1000
AnnotativeData
1002
{
1070
     1
1070
     1
1002
}
  0
MTEXT
  5
13DF1
102
{ACAD_REACTORS
330
13E04
102
}
330
1F
100
AcDbEntity
  8
Title Block
100
AcDbMText
 10
36.40439396871116
 20
0.6451897388826509
 30
0.0
 40
0.7291122973446662
 41
21.0123188684256
 46
0.0
 71
     5
 72
     5
  1
{\fArial|b0|i0|c0|p34;1-866-944-0153}
 73
     1
 44
1.0
  0
MTEXT
  5
13DF2
102
{ACAD_REACTORS
330
13E04
102
}
330
1F
100
AcDbEntity
  8
Title Block
100
AcDbMText
 10
36.40439396871116
 20
1.779627172265648
 30
0.0
 40
0.7291122973446662
 41
21.0123188684256
 46
0.0
 71
     5
 72
     5
  1
{\fArial|b0|i0|c0|p34;www.logixicf.com}
 73
     1
 44
1.0
  0
VIEWPORT
  5
11F07
330
5D
100
AcDbEntity
 67
     1
  8
0
100
AcDbViewport
 10
5.249999639556163
 20
3.999999883606677
 30
0.0
 40
21.60469660038833
 41
8.992999745766947
 68
     1
 69
     1
 12
5.249999639556163
 22
3.999999883606677
 13
0.0
 23
0.0
 14
0.5
 24
0.5
 15
0.5
 25
0.5
 16
0.0
 26
0.0
 36
1.0
 17
0.0
 27
0.0
 37
0.0
 42
50.0
 43
0.0
 44
0.0
 45
8.992999745766947
 50
0.0
 51
0.0
 72
  1000
 90
    32800
  1

281
     0
 71
     1
 74
     0
110
0.0
120
0.0
130
0.0
111
1.0
121
0.0
131
0.0
112
0.0
122
1.0
132
0.0
 79
     0
146
0.0
170
     0
 61
     5
348
13CD8
292
     1
282
     1
141
0.0
142
0.0
 63
   250
421
  3355443
  0
VIEWPORT
  5
11F09
330
5D
100
AcDbEntity
 67
     1
  8
Dim
100
AcDbViewport
 10
5.24999976158142
 20
3.99999976158142
 30
0.0
 40
8.399999618530271
 41
6.399999618530272
 68
     2
 69
     2
 12
70.24570646213799
 22
55.11630672257945
 13
0.0
 23
0.0
 14
0.5
 24
0.5
 15
0.5
 25
0.5
 16
0.0
 26
0.0
 36
1.0
 17
0.0
 27
0.0
 37
0.0
 42
50.0
 43
0.0
 44
0.0
 45
113.4515982453417
 50
0.0
 51
0.0
 72
  1000
 90
    32864
  1

281
     0
 71
     1
 74
     0
110
0.0
120
0.0
130
0.0
111
1.0
121
0.0
131
0.0
112
0.0
122
1.0
132
0.0
 79
     0
146
0.0
170
     0
 61
     5
348
13CD8
292
     1
282
     1
141
0.0
142
0.0
 63
   250
421
  3355443
  0
ENDSEC
  0
SECTION
  2
OBJECTS
  0
DICTIONARY
  5
C
330
0
100
AcDbDictionary
281
     1
  3
ACAD_CIP_PREVIOUS_PRODUCT_INFO
350
13D9A
  3
ACAD_COLOR
350
73
  3
ACAD_DETAILVIEWSTYLE
350
13D8A
  3
ACAD_FIELDLIST
350
7B86
  3
ACAD_GROUP
350
D
  3
ACAD_LAYOUT
350
1A
  3
ACAD_MATERIAL
350
72
  3
ACAD_MLEADERSTYLE
350
13D05
  3
ACAD_MLINESTYLE
350
17
  3
ACAD_PLOTSETTINGS
350
19
  3
ACAD_PLOTSTYLENAME
350
E
  3
ACAD_SCALELIST
350
13CE3
  3
ACAD_SECTIONVIEWSTYLE
350
13D88
  3
ACAD_TABLESTYLE
350
86
  3
ACAD_VISUALSTYLE
350
13CD2
  3
AcadDim
350
13838
  3
ACDB_RECOMPOSE_DATA
350
13E29
  3
AcDbVariableDictionary
350
66
  3
AcDsDecomposeData
350
13E2F
  3
AEC_CLASSIFICATION_SYSTEM_DEFS
350
7B87
  3
AEC_PROPERTY_SET_DEFS
350
13DE0
  3
BNS_VARIABLES
350
1401
  0
DICTIONARY
  5
8D
330
2
100
AcDbDictionary
280
     1
281
     1
  3
ACAD_LAYERFILTERS
360
12F67
  3
ACAD_LAYERSTATES
360
11EFF
  3
ACLYDICTIONARY
360
12F66
  0
DICTIONARY
  5
13D3C
330
10
100
AcDbDictionary
280
     1
281
     1
  3
ADSK_XREC_LAYER_RECONCILED
360
13D3D
  0
DICTIONARY
  5
13D3E
330
8B
100
AcDbDictionary
280
     1
281
     1
  3
ADSK_XREC_LAYER_RECONCILED
360
13D3F
  0
DICTIONARY
  5
13D40
330
413
100
AcDbDictionary
280
     1
281
     1
  3
ADSK_XREC_LAYER_RECONCILED
360
13D41
  0
DICTIONARY
  5
13D42
330
770
100
AcDbDictionary
280
     1
281
     1
  3
ADSK_XREC_LAYER_RECONCILED
360
13D43
  0
DICTIONARY
  5
13D44
330
E05
100
AcDbDictionary
280
     1
281
     1
  3
ADSK_XREC_LAYER_RECONCILED
360
13D45
  0
DICTIONARY
  5
13D46
330
13AF
100
AcDbDictionary
280
     1
281
     1
  3
ADSK_XREC_LAYER_RECONCILED
360
13D47
  0
DICTIONARY
  5
13D48
330
32CE
100
AcDbDictionary
280
     1
281
     1
  3
ADSK_XREC_LAYER_RECONCILED
360
13D49
  0
DICTIONARY
  5
13D4A
330
7B7D
100
AcDbDictionary
280
     1
281
     1
  3
ADSK_XREC_LAYER_RECONCILED
360
13D4B
  0
DICTIONARY
  5
13D4C
330
12725
100
AcDbDictionary
280
     1
281
     1
  3
ADSK_XREC_LAYER_RECONCILED
360
13D4D
  0
DICTIONARY
  5
13D4E
330
12726
100
AcDbDictionary
280
     1
281
     1
  3
ADSK_XREC_LAYER_RECONCILED
360
13D4F
  0
DICTIONARY
  5
13D50
330
1274D
100
AcDbDictionary
280
     1
281
     1
  3
ADSK_XREC_LAYER_RECONCILED
360
13D51
  0
DICTIONARY
  5
13D52
330
12D64
100
AcDbDictionary
280
     1
281
     1
  3
ADSK_XREC_LAYER_RECONCILED
360
13D53
  0
DICTIONARY
  5
13D54
330
12D7E
100
AcDbDictionary
280
     1
281
     1
  3
ADSK_XREC_LAYER_RECONCILED
360
13D55
  0
DICTIONARY
  5
13D56
330
12F65
100
AcDbDictionary
280
     1
281
     1
  3
ADSK_XREC_LAYER_RECONCILED
360
13D57
  0
DICTIONARY
  5
13DB9
330
13DB8
100
AcDbDictionary
280
     1
281
     1
  0
DICTIONARY
  5
39A
330
1F
100
AcDbDictionary
280
     1
281
     1
  3
ACAD_SORTENTS
360
39B
  0
DICTIONARY
  5
13D19
330
7B76
100
AcDbDictionary
280
     1
281
     1
  0
DICTIONARY
  5
13060
330
1305E
100
AcDbDictionary
280
     1
281
     1
  3
ACAD_DIMASSOC
360
13061
  0
DICTIONARY
  5
13064
330
13062
100
AcDbDictionary
280
     1
281
     1
  3
ACAD_DIMASSOC
360
13065
  0
DICTIONARY
  5
13068
330
13066
100
AcDbDictionary
280
     1
281
     1
  3
ACAD_DIMASSOC
360
13069
  0
DICTIONARY
  5
1306C
330
1306A
100
AcDbDictionary
280
     1
281
     1
  3
ACAD_DIMASSOC
360
1306D
  0
DICTIONARY
  5
13074
330
13072
100
AcDbDictionary
280
     1
281
     1
  3
ACAD_DIMASSOC
360
13075
  0
DICTIONARY
  5
13078
330
13076
100
AcDbDictionary
280
     1
281
     1
  3
ACAD_DIMASSOC
360
13079
  0
DICTIONARY
  5
1307E
330
1307C
100
AcDbDictionary
280
     1
281
     1
  3
ACAD_DIMASSOC
360
1307F
  0
DICTIONARY
  5
13082
330
13080
100
AcDbDictionary
280
     1
281
     1
  3
ACAD_DIMASSOC
360
13083
  0
DICTIONARY
  5
13DEB
330
13DEA
100
AcDbDictionary
280
     1
281
     1
  3
ACAD_MTEXT_2008_RT
360
13E27
  0
DICTIONARY
  5
13DED
330
13DEC
100
AcDbDictionary
280
     1
281
     1
  3
ACAD_MTEXT_2008_RT
360
13E28
  3
AcDbContextDataManager
360
13DEE
  0
XRECORD
  5
13D9A
102
{ACAD_REACTORS
330
C
102
}
330
C
100
AcDbXrecord
280
     1
300
ACD
300
2022
300

  0
DICTIONARY
  5
73
102
{ACAD_REACTORS
330
C
102
}
330
C
100
AcDbDictionary
281
     1
  0
DICTIONARY
  5
13D8A
102
{ACAD_REACTORS
330
C
102
}
330
C
100
AcDbDictionary
281
     1
  3
Imperial24
350
13D8B
  0
FIELDLIST
  5
7B86
102
{ACAD_REACTORS
330
C
102
}
330
C
100
AcDbIdSet
 90
        0
100
AcDbFieldList
  0
DICTIONARY
  5
D
102
{ACAD_REACTORS
330
C
102
}
330
C
100
AcDbDictionary
281
     1
  3
*A1
350
13E04
  0
DICTIONARY
  5
1A
102
{ACAD_REACTORS
330
C
102
}
330
C
100
AcDbDictionary
281
     1
  3
Layout1
350
59
  3
Layout2
350
5E
  3
Model
350
22
  0
DICTIONARY
  5
72
102
{ACAD_REACTORS
330
C
102
}
330
C
100
AcDbDictionary
281
     1
  3
ByBlock
350
13CC2
  3
ByLayer
350
13CBA
  3
Global
350
13CCA
  0
DICTIONARY
  5
13D05
102
{ACAD_REACTORS
330
C
102
}
330
C
100
AcDbDictionary
281
     1
  3
Standard
350
13D06
  0
DICTIONARY
  5
17
102
{ACAD_REACTORS
330
C
102
}
330
C
100
AcDbDictionary
281
     1
  3
Standard
350
18
  0
DICTIONARY
  5
19
102
{ACAD_REACTORS
330
C
102
}
330
C
100
AcDbDictionary
281
     1
  0
ACDBDICTIONARYWDFLT
  5
E
102
{ACAD_REACTORS
330
C
102
}
330
C
100
AcDbDictionary
281
     1
  3
Normal
350
F
100
AcDbDictionaryWithDefault
340
F
  0
DICTIONARY
  5
13CE3
102
{ACAD_REACTORS
330
C
102
}
330
C
100
AcDbDictionary
281
     1
  3
A0
350
13CE4
  3
A1
350
13CE5
  3
A2
350
13CE6
  3
A3
350
13CE7
  3
A4
350
13CE8
  3
A5
350
13CE9
  3
A6
350
13CEA
  3
A7
350
13CEB
  3
A8
350
13CEC
  3
A9
350
13CED
  3
B0
350
13CEE
  3
B1
350
13CEF
  3
B2
350
13CF0
  3
B3
350
13CF1
  3
B4
350
13CF2
  3
B5
350
13CF3
  3
B6
350
13CF4
  3
B7
350
13CF5
  3
B8
350
13CF6
  3
B9
350
13CF7
  3
C0
350
13CF8
  3
C1
350
13CF9
  3
C2
350
13CFA
  3
C3
350
13CFB
  3
C4
350
13CFC
  3
C5
350
13CFD
  3
C6
350
13CFE
  3
C7
350
13CFF
  3
C8
350
13D00
  3
C9
350
13D01
  3
D0
350
13D02
  3
D1
350
13D03
  3
D2
350
13D04
  0
DICTIONARY
  5
13D88
102
{ACAD_REACTORS
330
C
102
}
330
C
100
AcDbDictionary
281
     1
  3
Imperial24
350
13D89
  0
DICTIONARY
  5
86
102
{ACAD_REACTORS
330
C
102
}
330
C
100
AcDbDictionary
281
     1
  3
Example1
350
37C9
  3
Example2
350
36AB
  3
Standard
350
87
  0
DICTIONARY
  5
13CD2
102
{ACAD_REACTORS
330
C
102
}
330
C
100
AcDbDictionary
281
     1
  3
2dWireframe
350
13CD8
  3
3D Hidden
350
13CDA
  3
3dWireframe
350
13CD9
  3
Basic
350
13CD7
  3
Brighten
350
13CDE
  3
ColorChange
350
13CE2
  3
Conceptual
350
13CDB
  3
Dim
350
13CDD
  3
EdgeColorOff
350
13D67
  3
Facepattern
350
13CE1
  3
Flat
350
13CD3
  3
FlatWithEdges
350
13CD4
  3
Gouraud
350
13CD5
  3
GouraudWithEdges
350
13CD6
  3
Hidden
350
13D82
  3
JitterOff
350
13D65
  3
Linepattern
350
13CE0
  3
OverhangOff
350
13D66
  3
Realistic
350
13CDC
  3
Shaded
350
13D87
  3
Shaded with edges
350
13D86
  3
Shades of Gray
350
13D83
  3
Sketchy
350
13D84
  3
Thicken
350
13CDF
  3
Wireframe
350
13D81
  3
X-Ray
350
13D85
  0
XRECORD
  5
13838
102
{ACAD_REACTORS
330
C
102
}
330
C
100
AcDbXrecord
280
     1
 90
   990106
  3

 60
     0
 61
     0
 62
     1
 63
     3
 64
     0
 65
     0
 66
     0
 67
     3
 68
     1
 69
     0
 70
     0
 71
     0
 72
     0
 40
12.85407191555159
170
     0
340
0
  0
XRECORD
  5
13E29
102
{ACAD_REACTORS
330
C
102
}
330
C
100
AcDbXrecord
280
     1
 90
        1
330
87
330
36AB
330
37C9
330
13DEA
330
13DEC
  0
DICTIONARY
  5
66
102
{ACAD_REACTORS
330
C
102
}
330
C
100
AcDbDictionary
281
     1
  3
CANNOSCALE
350
13D29
  3
CMLEADERSTYLE
350
13D27
  3
CTABLESTYLE
350
364
  3
CVIEWDETAILSTYLE
350
13DA5
  3
CVIEWSECTIONSTYLE
350
13DA6
  3
DIMASSOC
350
67
  3
HIDETEXT
350
6B
  3
LAYEREVAL
350
13D7E
  3
LAYERNOTIFY
350
13D7F
  3
LIGHTINGUNITS
350
13D2A
  3
MSLTSCALE
350
13D28
  3
PROJECTNAME
350
8305
  0
DICTIONARY
  5
13E2F
102
{ACAD_REACTORS
330
C
102
}
330
C
100
AcDbDictionary
281
     1
  3
AcDsRecords
350
13E31
  3
AcDsSchemas
350
13E30
1001
ACAD
1070
     2
  0
DICTIONARY
  5
7B87
102
{ACAD_REACTORS
330
C
102
}
330
C
100
AcDbDictionary
281
     1
  0
DICTIONARY
  5
13DE0
102
{ACAD_REACTORS
330
C
102
}
330
C
100
AcDbDictionary
281
     1
  0
DICTIONARY
  5
1401
102
{ACAD_REACTORS
330
C
102
}
330
C
100
AcDbDictionary
281
     1
  3
ACET.BREAKLINE-BLKEXE
350
1402
  3
ACET.BREAKLINE-BLKSIZE
350
12E50
  0
DICTIONARY
  5
12F67
102
{ACAD_REACTORS
330
8D
102
}
330
8D
100
AcDbDictionary
281
     1
  0
DICTIONARY
  5
11EFF
102
{ACAD_REACTORS
330
8D
102
}
330
8D
100
AcDbDictionary
281
     1
  0
DICTIONARY
  5
12F66
102
{ACAD_REACTORS
330
8D
102
}
330
8D
100
AcDbDictionary
281
     1
1001
ACAD
1000
<All
  0
XRECORD
  5
13D3D
102
{ACAD_REACTORS
330
13D3C
102
}
330
13D3C
100
AcDbXrecord
280
     1
290
     1
  0
XRECORD
  5
13D3F
102
{ACAD_REACTORS
330
13D3E
102
}
330
13D3E
100
AcDbXrecord
280
     1
290
     1
  0
XRECORD
  5
13D41
102
{ACAD_REACTORS
330
13D40
102
}
330
13D40
100
AcDbXrecord
280
     1
290
     1
  0
XRECORD
  5
13D43
102
{ACAD_REACTORS
330
13D42
102
}
330
13D42
100
AcDbXrecord
280
     1
290
     1
  0
XRECORD
  5
13D45
102
{ACAD_REACTORS
330
13D44
102
}
330
13D44
100
AcDbXrecord
280
     1
290
     1
  0
XRECORD
  5
13D47
102
{ACAD_REACTORS
330
13D46
102
}
330
13D46
100
AcDbXrecord
280
     1
290
     1
  0
XRECORD
  5
13D49
102
{ACAD_REACTORS
330
13D48
102
}
330
13D48
100
AcDbXrecord
280
     1
290
     1
  0
XRECORD
  5
13D4B
102
{ACAD_REACTORS
330
13D4A
102
}
330
13D4A
100
AcDbXrecord
280
     1
290
     1
  0
XRECORD
  5
13D4D
102
{ACAD_REACTORS
330
13D4C
102
}
330
13D4C
100
AcDbXrecord
280
     1
290
     1
  0
XRECORD
  5
13D4F
102
{ACAD_REACTORS
330
13D4E
102
}
330
13D4E
100
AcDbXrecord
280
     1
290
     1
  0
XRECORD
  5
13D51
102
{ACAD_REACTORS
330
13D50
102
}
330
13D50
100
AcDbXrecord
280
     1
290
     1
  0
XRECORD
  5
13D53
102
{ACAD_REACTORS
330
13D52
102
}
330
13D52
100
AcDbXrecord
280
     1
290
     1
  0
XRECORD
  5
13D55
102
{ACAD_REACTORS
330
13D54
102
}
330
13D54
100
AcDbXrecord
280
     1
290
     1
  0
XRECORD
  5
13D57
102
{ACAD_REACTORS
330
13D56
102
}
330
13D56
100
AcDbXrecord
280
     1
290
     1
  0
SORTENTSTABLE
  5
39B
102
{ACAD_REACTORS
330
39A
102
}
330
39A
100
AcDbSortentsTable
330
1F
331
7B8A
  5
7BA4
331
7B8C
  5
7BA5
331
7B96
  5
7BA9
331
7B97
  5
7BAB
331
7BA4
  5
7BAC
331
7BA5
  5
7BAD
331
7BA7
  5
7BAF
331
7BA9
  5
80CD
331
7BAB
  5
80EB
331
7BAC
  5
81F0
331
7BAD
  5
81F1
331
7BAF
  5
81F2
331
81F1
  5
7B8C
331
81F2
  5
7B95
331
81F3
  5
7B96
331
81F4
  5
7B97
331
13057
  5
13081
331
13058
  5
13080
331
13059
  5
13057
331
1305A
  5
13058
331
1305B
  5
13059
331
1305C
  5
1305A
331
1305D
  5
1305B
331
1305E
  5
1305C
331
1305F
  5
1305D
331
13062
  5
1305E
331
13063
  5
1305F
331
13066
  5
13062
331
13067
  5
13063
331
1306A
  5
13066
331
1306B
  5
13067
331
1306E
  5
1306A
331
1306F
  5
1306B
331
13070
  5
1306E
331
13071
  5
1306F
331
13072
  5
13070
331
13073
  5
13071
331
13076
  5
13072
331
13077
  5
13073
331
1307C
  5
13076
331
1307D
  5
13077
331
13080
  5
1307C
331
13081
  5
1307D
  0
DIMASSOC
  5
13061
102
{ACAD_REACTORS
330
13060
102
}
330
13060
100
AcDbDimAssoc
330
1305E
 90
        1
 70
     0
 71
     0
  1
AcDbOsnapPointRef
 72
    10
331
12F80
 73
     2
 91
        1
 40
0.1028621070059094
 10
0.0
 20
0.0
 30
0.0
 75
     0
  0
DIMASSOC
  5
13065
102
{ACAD_REACTORS
330
13064
102
}
330
13064
100
AcDbDimAssoc
330
13062
 90
        1
 70
     0
 71
     0
  1
AcDbOsnapPointRef
 72
     3
331
1305B
 73
     2
 91
        0
 40
0.0
 10
0.0
 20
0.0
 30
0.0
 75
     0
  0
DIMASSOC
  5
13069
102
{ACAD_REACTORS
330
13068
102
}
330
13068
100
AcDbDimAssoc
330
13066
 90
        1
 70
     0
 71
     0
  1
AcDbOsnapPointRef
 72
     8
331
12FDB
 73
     2
 91
        0
 40
0.7555608383873941
 10
0.0
 20
0.0
 30
0.0
 75
     0
  0
DIMASSOC
  5
1306D
102
{ACAD_REACTORS
330
1306C
102
}
330
1306C
100
AcDbDimAssoc
330
1306A
 90
        1
 70
     0
 71
     0
  1
AcDbOsnapPointRef
 72
    10
331
1305D
 73
     2
 91
        0
 40
0.2688467099398553
 10
0.0
 20
0.0
 30
0.0
 75
     0
  0
DIMASSOC
  5
13075
102
{ACAD_REACTORS
330
13074
102
}
330
13074
100
AcDbDimAssoc
330
13072
 90
        1
 70
     0
 71
     0
  1
AcDbOsnapPointRef
 72
    10
331
12FA7
 73
     2
 91
        1
 40
0.6683349626521574
 10
0.0
 20
0.0
 30
0.0
 75
     0
  0
DIMASSOC
  5
13079
102
{ACAD_REACTORS
330
13078
102
}
330
13078
100
AcDbDimAssoc
330
13076
 90
        1
 70
     0
 71
     0
  1
AcDbOsnapPointRef
 72
    13
331
12FCD
 73
     2
 91
        0
 40
0.0
 10
0.0
 20
0.0
 30
2.000000000000000E+50
 75
     0
  0
DIMASSOC
  5
1307F
102
{ACAD_REACTORS
330
1307E
102
}
330
1307E
100
AcDbDimAssoc
330
1307C
 90
        1
 70
     0
 71
     0
  1
AcDbOsnapPointRef
 72
     2
331
12FAB
 73
     2
 91
        0
 40
0.5
 10
0.0
 20
0.0
 30
0.0
 75
     0
  0
DIMASSOC
  5
13083
102
{ACAD_REACTORS
330
13082
102
}
330
13082
100
AcDbDimAssoc
330
13080
 90
        1
 70
     0
 71
     0
  1
AcDbOsnapPointRef
 72
    10
331
12FD7
 73
     2
 91
        0
 40
0.3680501633939449
 10
0.0
 20
0.0
 30
0.0
 75
     0
  0
XRECORD
  5
13E27
102
{ACAD_REACTORS
330
13DEB
102
}
330
13DEB
100
AcDbXrecord
280
     1
 40
49533.0
  1
\pxql;{\fArial|b0|i0|c0|p34;\H1.0833x;®}
  0
XRECORD
  5
13E28
102
{ACAD_REACTORS
330
13DED
102
}
330
13DED
100
AcDbXrecord
280
     1
 40
250958.0
  1
\pxqc;{\C256;\c16777215;Build Anything \fCalibri|b1|i0|c0|p34;Better.}
  0
DICTIONARY
  5
13DEE
102
{ACAD_REACTORS
330
13DED
102
}
330
13DED
100
AcDbDictionary
281
     1
  3
ACDB_ANNOTATIONSCALES
350
13DEF
  0
ACDBDETAILVIEWSTYLE
  5
13D8B
102
{ACAD_XDICTIONARY
360
13E68
102
}
102
{ACAD_REACTORS
330
13D8A
102
}
330
13D8A
100
AcDbModelDocViewStyle
 70
     0
  3
Imperial24
290
     0
100
AcDbDetailViewStyle
 70
     0
 71
     0
 90
        3
 71
     1
340
11
 62
   256
 40
0.24
340
0
 62
   256
 40
0.24
300

 40
0.36
280
     3
 71
     2
340
16
 90
       25
 62
   256
 71
     3
340
11
 62
   256
 40
0.24
 90
        1
 40
0.75
 90
        1
300
%<\AcVar ViewType \f "%tc1">% %<\AcVar ViewDetailId>%\PSCALE %<\AcVar ViewScale \f "%sn">%
 71
     4
340
16
 90
       25
 62
   256
340
16
 90
       25
 62
   256
280
     0
  0
GROUP
  5
13E04
102
{ACAD_REACTORS
330
D
102
}
330
D
100
AcDbGroup
300

 70
     1
 71
     1
340
13DF2
340
13DF1
340
13DEC
340
13DEA
340
13DE9
340
13DE8
340
13DE7
340
13DE6
340
13DE5
340
13DE4
  0
LAYOUT
  5
59
102
{ACAD_XDICTIONARY
360
11F01
102
}
102
{ACAD_REACTORS
330
1A
102
}
330
1A
100
AcDbPlotSettings
  1

  2
none_device
  4
Letter_(8.50_x_11.00_Inches)
  6

 40
6.349999904632568
 41
6.349999904632568
 42
6.350006103515625
 43
6.350006103515625
 44
215.8999938964844
 45
279.3999938964844
 46
0.0
 47
0.0
 48
0.0
 49
0.0
140
0.0
141
0.0
142
1.0
143
1.0
 70
   688
 72
     0
 73
     1
 74
     5
  7
monochrome.ctb
 75
    16
147
1.0
 76
     0
 77
     2
 78
   300
148
0.0
149
0.0
100
AcDbLayout
  1
Layout1
 70
     1
 71
     1
 10
-0.2500002402958907
 20
-0.2499999962453767
 11
10.74999951940821
 21
8.249999763458731
 12
0.0
 22
0.0
 32
0.0
 14
1.049999952316284
 24
0.7999999523162842
 34
0.0
 15
9.449999570846555
 25
7.199999570846556
 35
0.0
146
0.0
 13
0.0
 23
0.0
 33
0.0
 16
1.0
 26
0.0
 36
0.0
 17
0.0
 27
1.0
 37
0.0
 76
     0
330
58
331
11EF8
1001
ACAD_PSEXT
1000
None
1000
None
1000
Not applicable
1000
The layout will not be plotted unless a new plotter configuration name is selected.
1070
     0
  0
LAYOUT
  5
5E
102
{ACAD_XDICTIONARY
360
11F0E
102
}
102
{ACAD_REACTORS
330
1A
102
}
330
1A
100
AcDbPlotSettings
  1

  2
none_device
  4
Letter_(8.50_x_11.00_Inches)
  6

 40
6.349999904632568
 41
6.349999904632568
 42
6.350006103515625
 43
6.350006103515625
 44
215.8999938964844
 45
279.3999938964844
 46
0.0
 47
0.0
 48
0.0
 49
0.0
140
0.0
141
0.0
142
1.0
143
1.0
 70
   688
 72
     0
 73
     1
 74
     5
  7
monochrome.ctb
 75
    16
147
1.0
 76
     0
 77
     2
 78
   300
148
0.0
149
0.0
100
AcDbLayout
  1
Layout2
 70
     1
 71
     2
 10
-0.2500002402958907
 20
-0.2499999962453767
 11
10.74999951940821
 21
8.249999763458731
 12
0.0
 22
0.0
 32
0.0
 14
1.049999952316284
 24
0.7999999523162842
 34
0.0
 15
9.449999570846555
 25
7.199999570846556
 35
0.0
146
0.0
 13
0.0
 23
0.0
 33
0.0
 16
1.0
 26
0.0
 36
0.0
 17
0.0
 27
1.0
 37
0.0
 76
     0
330
5D
331
11F07
1001
ACAD_PSEXT
1000
None
1000
None
1000
Not applicable
1000
The layout will not be plotted unless a new plotter configuration name is selected.
1070
     0
  0
LAYOUT
  5
22
102
{ACAD_XDICTIONARY
360
13D7C
102
}
102
{ACAD_REACTORS
330
1A
102
}
330
1A
100
AcDbPlotSettings
  1

  2
Adobe PDF
  4
Letter
  6

 40
3.174999952316284
 41
3.174999952316284
 42
3.175003051757812
 43
3.17498779296875
 44
215.8999938964844
 45
279.3999938964844
 46
0.0
 47
0.9696004031158373
 48
27.11748254559107
 49
-0.5702746285459455
140
113.2734236536866
141
110.8962373936953
142
1.0
143
10.44314483062517
 70
  3764
 72
     0
 73
     0
 74
     4
  7
acad.ctb
 75
     0
147
0.0957565959506218
 76
     0
 77
     4
 78
   300
148
-688.784056658013
149
14.48497556506701
100
AcDbLayout
  1
Model
 70
     1
 71
     0
 10
0.0
 20
0.0
 11
12.0
 21
9.0
 12
0.0
 22
0.0
 32
0.0
 14
0.0
 24
0.0
 34
0.0
 15
0.0
 25
0.0
 35
0.0
146
0.0
 13
0.0
 23
0.0
 33
0.0
 16
1.0
 26
0.0
 36
0.0
 17
0.0
 27
1.0
 37
0.0
 76
     0
330
1F
331
13CAB
1001
ACAD_PSEXT
1000
Adobe PDF
1000
Adobe PDF Converter
1000
COM1:
1000

1070
     0
  0
MATERIAL
  5
13CC2
102
{ACAD_XDICTIONARY
360
13CC3
102
}
102
{ACAD_REACTORS
330
72
102
}
330
72
100
AcDbMaterial
  1
ByBlock
 72
     0
 43
0.0208333333333333
 43
0.0
 43
0.0
 43
0.0
 43
0.0
 43
0.0208333333333333
 43
0.0
 43
0.0
 43
0.0
 43
0.0
 43
1.0
 43
0.0
 43
0.0
 43
0.0
 43
0.0
 43
1.0
 77
     0
 47
0.0208333333333333
 47
0.0
 47
0.0
 47
0.0
 47
0.0
 47
0.0208333333333333
 47
0.0
 47
0.0
 47
0.0
 47
0.0
 47
1.0
 47
0.0
 47
0.0
 47
0.0
 47
0.0
 47
1.0
171
     0
 49
0.0208333333333333
 49
0.0
 49
0.0
 49
0.0
 49
0.0
 49
0.0208333333333333
 49
0.0
 49
0.0
 49
0.0
 49
0.0
 49
1.0
 49
0.0
 49
0.0
 49
0.0
 49
0.0
 49
1.0
175
     0
142
0.0208333333333333
142
0.0
142
0.0
142
0.0
142
0.0
142
0.0208333333333333
142
0.0
142
0.0
142
0.0
142
0.0
142
1.0
142
0.0
142
0.0
142
0.0
142
0.0
142
1.0
179
     0
144
0.0208333333333333
144
0.0
144
0.0
144
0.0
144
0.0
144
0.0208333333333333
144
0.0
144
0.0
144
0.0
144
0.0
144
1.0
144
0.0
144
0.0
144
0.0
144
0.0
144
1.0
147
0.0208333333333333
147
0.0
147
0.0
147
0.0
147
0.0
147
0.0208333333333333
147
0.0
147
0.0
147
0.0
147
0.0
147
1.0
147
0.0
147
0.0
147
0.0
147
0.0
147
1.0
  0
MATERIAL
  5
13CBA
102
{ACAD_XDICTIONARY
360
13CBB
102
}
102
{ACAD_REACTORS
330
72
102
}
330
72
100
AcDbMaterial
  1
ByLayer
 72
     0
 43
0.0208333333333333
 43
0.0
 43
0.0
 43
0.0
 43
0.0
 43
0.0208333333333333
 43
0.0
 43
0.0
 43
0.0
 43
0.0
 43
1.0
 43
0.0
 43
0.0
 43
0.0
 43
0.0
 43
1.0
 77
     0
 47
0.0208333333333333
 47
0.0
 47
0.0
 47
0.0
 47
0.0
 47
0.0208333333333333
 47
0.0
 47
0.0
 47
0.0
 47
0.0
 47
1.0
 47
0.0
 47
0.0
 47
0.0
 47
0.0
 47
1.0
171
     0
 49
0.0208333333333333
 49
0.0
 49
0.0
 49
0.0
 49
0.0
 49
0.0208333333333333
 49
0.0
 49
0.0
 49
0.0
 49
0.0
 49
1.0
 49
0.0
 49
0.0
 49
0.0
 49
0.0
 49
1.0
175
     0
142
0.0208333333333333
142
0.0
142
0.0
142
0.0
142
0.0
142
0.0208333333333333
142
0.0
142
0.0
142
0.0
142
0.0
142
1.0
142
0.0
142
0.0
142
0.0
142
0.0
142
1.0
179
     0
144
0.0208333333333333
144
0.0
144
0.0
144
0.0
144
0.0
144
0.0208333333333333
144
0.0
144
0.0
144
0.0
144
0.0
144
1.0
144
0.0
144
0.0
144
0.0
144
0.0
144
1.0
147
0.0208333333333333
147
0.0
147
0.0
147
0.0
147
0.0
147
0.0208333333333333
147
0.0
147
0.0
147
0.0
147
0.0
147
1.0
147
0.0
147
0.0
147
0.0
147
0.0
147
1.0
  0
MATERIAL
  5
13CCA
102
{ACAD_XDICTIONARY
360
13CCB
102
}
102
{ACAD_REACTORS
330
72
102
}
330
72
100
AcDbMaterial
  1
Global
 72
     0
 43
0.0208333333333333
 43
0.0
 43
0.0
 43
0.0
 43
0.0
 43
0.0208333333333333
 43
0.0
 43
0.0
 43
0.0
 43
0.0
 43
1.0
 43
0.0
 43
0.0
 43
0.0
 43
0.0
 43
1.0
 77
     0
 47
0.0208333333333333
 47
0.0
 47
0.0
 47
0.0
 47
0.0
 47
0.0208333333333333
 47
0.0
 47
0.0
 47
0.0
 47
0.0
 47
1.0
 47
0.0
 47
0.0
 47
0.0
 47
0.0
 47
1.0
171
     0
 49
0.0208333333333333
 49
0.0
 49
0.0
 49
0.0
 49
0.0
 49
0.0208333333333333
 49
0.0
 49
0.0
 49
0.0
 49
0.0
 49
1.0
 49
0.0
 49
0.0
 49
0.0
 49
0.0
 49
1.0
175
     0
142
0.0208333333333333
142
0.0
142
0.0
142
0.0
142
0.0
142
0.0208333333333333
142
0.0
142
0.0
142
0.0
142
0.0
142
1.0
142
0.0
142
0.0
142
0.0
142
0.0
142
1.0
179
     0
144
0.0208333333333333
144
0.0
144
0.0
144
0.0
144
0.0
144
0.0208333333333333
144
0.0
144
0.0
144
0.0
144
0.0
144
1.0
144
0.0
144
0.0
144
0.0
144
0.0
144
1.0
147
0.0208333333333333
147
0.0
147
0.0
147
0.0
147
0.0
147
0.0208333333333333
147
0.0
147
0.0
147
0.0
147
0.0
147
1.0
147
0.0
147
0.0
147
0.0
147
0.0
147
1.0
  0
MLEADERSTYLE
  5
13D06
102
{ACAD_REACTORS
330
13D05
102
}
330
13D05
100
AcDbMLeaderStyle
179
     2
170
     2
171
     1
172
     0
 90
        2
 40
0.0
 41
0.0
173
     1
 91
-1056964608
340
14
 92
       -2
290
     1
 42
0.09
291
     1
 43
0.36
  3
Standard
 44
0.18
300

342
11
174
     1
178
     6
175
     1
176
     0
 93
-1056964608
 45
0.18
292
     0
297
     0
 46
0.18
 94
-1056964608
 47
1.0
 49
1.0
140
1.0
293
     1
141
0.0
294
     1
177
     0
142
1.0
295
     0
296
     0
143
0.125
271
     0
272
     9
273
     9
  0
MLINESTYLE
  5
18
102
{ACAD_REACTORS
330
17
102
}
330
17
100
AcDbMlineStyle
  2
STANDARD
 70
     0
  3

 62
   256
 51
90.0
 52
90.0
 71
     2
 49
0.5
 62
   256
  6
BYLAYER
 49
-0.5
 62
   256
  6
BYLAYER
  0
ACDBPLACEHOLDER
  5
F
102
{ACAD_REACTORS
330
E
102
}
330
E
  0
SCALE
  5
13CE4
102
{ACAD_REACTORS
330
13CE3
102
}
330
13CE3
100
AcDbScale
 70
     0
300
1:1
140
1.0
141
1.0
290
     1
  0
SCALE
  5
13CE5
102
{ACAD_REACTORS
330
13CE3
102
}
330
13CE3
100
AcDbScale
 70
     0
300
1:2
140
1.0
141
2.0
290
     0
  0
SCALE
  5
13CE6
102
{ACAD_REACTORS
330
13CE3
102
}
330
13CE3
100
AcDbScale
 70
     0
300
1:4
140
1.0
141
4.0
290
     0
  0
SCALE
  5
13CE7
102
{ACAD_REACTORS
330
13CE3
102
}
330
13CE3
100
AcDbScale
 70
     0
300
1:5
140
1.0
141
5.0
290
     0
  0
SCALE
  5
13CE8
102
{ACAD_REACTORS
330
13CE3
102
}
330
13CE3
100
AcDbScale
 70
     0
300
1:8
140
1.0
141
8.0
290
     0
  0
SCALE
  5
13CE9
102
{ACAD_REACTORS
330
13CE3
102
}
330
13CE3
100
AcDbScale
 70
     0
300
1:10
140
1.0
141
10.0
290
     0
  0
SCALE
  5
13CEA
102
{ACAD_REACTORS
330
13CE3
102
}
330
13CE3
100
AcDbScale
 70
     0
300
1:16
140
1.0
141
16.0
290
     0
  0
SCALE
  5
13CEB
102
{ACAD_REACTORS
330
13CE3
102
}
330
13CE3
100
AcDbScale
 70
     0
300
1:20
140
1.0
141
20.0
290
     0
  0
SCALE
  5
13CEC
102
{ACAD_REACTORS
330
13CE3
102
}
330
13CE3
100
AcDbScale
 70
     0
300
1:30
140
1.0
141
30.0
290
     0
  0
SCALE
  5
13CED
102
{ACAD_REACTORS
330
13CE3
102
}
330
13CE3
100
AcDbScale
 70
     0
300
1:40
140
1.0
141
40.0
290
     0
  0
SCALE
  5
13CEE
102
{ACAD_REACTORS
330
13CE3
102
}
330
13CE3
100
AcDbScale
 70
     0
300
1:50
140
1.0
141
50.0
290
     0
  0
SCALE
  5
13CEF
102
{ACAD_REACTORS
330
13CE3
102
}
330
13CE3
100
AcDbScale
 70
     0
300
1:100
140
1.0
141
100.0
290
     0
  0
SCALE
  5
13CF0
102
{ACAD_REACTORS
330
13CE3
102
}
330
13CE3
100
AcDbScale
 70
     0
300
2:1
140
2.0
141
1.0
290
     0
  0
SCALE
  5
13CF1
102
{ACAD_REACTORS
330
13CE3
102
}
330
13CE3
100
AcDbScale
 70
     0
300
4:1
140
4.0
141
1.0
290
     0
  0
SCALE
  5
13CF2
102
{ACAD_REACTORS
330
13CE3
102
}
330
13CE3
100
AcDbScale
 70
     0
300
8:1
140
8.0
141
1.0
290
     0
  0
SCALE
  5
13CF3
102
{ACAD_REACTORS
330
13CE3
102
}
330
13CE3
100
AcDbScale
 70
     0
300
10:1
140
10.0
141
1.0
290
     0
  0
SCALE
  5
13CF4
102
{ACAD_REACTORS
330
13CE3
102
}
330
13CE3
100
AcDbScale
 70
     0
300
100:1
140
100.0
141
1.0
290
     0
  0
SCALE
  5
13CF5
102
{ACAD_REACTORS
330
13CE3
102
}
330
13CE3
100
AcDbScale
 70
     0
300
1/128" = 1'-0"
140
0.0078125
141
12.0
290
     0
  0
SCALE
  5
13CF6
102
{ACAD_REACTORS
330
13CE3
102
}
330
13CE3
100
AcDbScale
 70
     0
300
1/64" = 1'-0"
140
0.015625
141
12.0
290
     0
  0
SCALE
  5
13CF7
102
{ACAD_REACTORS
330
13CE3
102
}
330
13CE3
100
AcDbScale
 70
     0
300
1/32" = 1'-0"
140
0.03125
141
12.0
290
     0
  0
SCALE
  5
13CF8
102
{ACAD_REACTORS
330
13CE3
102
}
330
13CE3
100
AcDbScale
 70
     0
300
1/16" = 1'-0"
140
0.0625
141
12.0
290
     0
  0
SCALE
  5
13CF9
102
{ACAD_REACTORS
330
13CE3
102
}
330
13CE3
100
AcDbScale
 70
     0
300
3/32" = 1'-0"
140
0.09375
141
12.0
290
     0
  0
SCALE
  5
13CFA
102
{ACAD_REACTORS
330
13CE3
102
}
330
13CE3
100
AcDbScale
 70
     0
300
1/8" = 1'-0"
140
0.125
141
12.0
290
     0
  0
SCALE
  5
13CFB
102
{ACAD_REACTORS
330
13CE3
102
}
330
13CE3
100
AcDbScale
 70
     0
300
3/16" = 1'-0"
140
0.1875
141
12.0
290
     0
  0
SCALE
  5
13CFC
102
{ACAD_REACTORS
330
13CE3
102
}
330
13CE3
100
AcDbScale
 70
     0
300
1/4" = 1'-0"
140
0.25
141
12.0
290
     0
  0
SCALE
  5
13CFD
102
{ACAD_REACTORS
330
13CE3
102
}
330
13CE3
100
AcDbScale
 70
     0
300
3/8" = 1'-0"
140
0.375
141
12.0
290
     0
  0
SCALE
  5
13CFE
102
{ACAD_REACTORS
330
13CE3
102
}
330
13CE3
100
AcDbScale
 70
     0
300
1/2" = 1'-0"
140
0.5
141
12.0
290
     0
  0
SCALE
  5
13CFF
102
{ACAD_REACTORS
330
13CE3
102
}
330
13CE3
100
AcDbScale
 70
     0
300
3/4" = 1'-0"
140
0.75
141
12.0
290
     0
  0
SCALE
  5
13D00
102
{ACAD_REACTORS
330
13CE3
102
}
330
13CE3
100
AcDbScale
 70
     0
300
1" = 1'-0"
140
1.0
141
12.0
290
     0
  0
SCALE
  5
13D01
102
{ACAD_REACTORS
330
13CE3
102
}
330
13CE3
100
AcDbScale
 70
     0
300
1-1/2" = 1'-0"
140
1.5
141
12.0
290
     0
  0
SCALE
  5
13D02
102
{ACAD_REACTORS
330
13CE3
102
}
330
13CE3
100
AcDbScale
 70
     0
300
3" = 1'-0"
140
3.0
141
12.0
290
     0
  0
SCALE
  5
13D03
102
{ACAD_REACTORS
330
13CE3
102
}
330
13CE3
100
AcDbScale
 70
     0
300
6" = 1'-0"
140
6.0
141
12.0
290
     0
  0
SCALE
  5
13D04
102
{ACAD_REACTORS
330
13CE3
102
}
330
13CE3
100
AcDbScale
 70
     0
300
1'-0" = 1'-0"
140
12.0
141
12.0
290
     0
  0
ACDBSECTIONVIEWSTYLE
  5
13D89
102
{ACAD_XDICTIONARY
360
13E66
102
}
102
{ACAD_REACTORS
330
13D88
102
}
330
13D88
100
AcDbModelDocViewStyle
 70
     0
  3
Imperial24
290
     0
100
AcDbSectionViewStyle
 70
     0
 71
     0
 90
       78
 71
     1
340
11
 62
   256
 40
0.24
340
0
340
0
 62
   256
 40
0.24
300
I, O, Q, S, X, Z
 40
0.48
 90
        3
 40
0.18
 90
        1
 71
     2
340
16
 90
       25
 62
   256
340
16
 90
       50
 62
   256
 40
0.24
 40
0.0
 40
0.24
 71
     3
340
11
 62
   256
 40
0.24
 90
        1
 40
0.75
 90
        1
300
%<\AcVar ViewType \f "%tc1">% %<\AcVar ViewSectionStartId>%-%<\AcVar ViewSectionEndId>%\PSCALE %<\AcVar ViewScale \f "%sn">%
 71
     4
 62
   256
 62
   257
300
ANSI31
 40
1.0
 90
        0
290
     0
290
     0
 90
        6
 40
0.0
 40
1.570796326794896
 40
0.2617993877991494
 40
1.308996938995747
 40
-0.2617993877991494
 40
1.832595714594046
  0
TABLESTYLE
  5
37C9
102
{ACAD_XDICTIONARY
360
13D24
102
}
102
{ACAD_REACTORS
330
86
102
}
330
86
100
AcDbTableStyle
280
     0
  3
Standard
 70
     0
 71
     0
 40
0.06
 41
0.06
280
     0
281
     0
  7
Arial
140
0.18
170
     2
 62
     0
 63
     7
283
     0
 90
        4
 91
        0
  1

274
    -2
284
     1
 64
     0
275
    -2
285
     1
 65
     0
276
    -2
286
     1
 66
     0
277
    -2
287
     1
 67
     0
278
    -2
288
     1
 68
     0
279
    -2
289
     1
 69
     0
  7
Arial
140
0.25
170
     5
 62
     1
 63
     7
283
     0
 90
        4
 91
        0
  1

274
    -2
284
     1
 64
     0
275
    -2
285
     1
 65
     0
276
    -2
286
     1
 66
     0
277
    -2
287
     1
 67
     0
278
    -2
288
     1
 68
     0
279
    -2
289
     1
 69
     0
  7
Arial
140
0.18
170
     5
 62
     5
 63
     9
283
     1
 90
        4
 91
        0
  1

274
    -2
284
     1
 64
     0
275
    -2
285
     1
 65
     0
276
    -2
286
     1
 66
     0
277
    -2
287
     1
 67
     0
278
    -2
288
     1
 68
     0
279
    -2
289
     1
 69
     0
  0
TABLESTYLE
  5
36AB
102
{ACAD_XDICTIONARY
360
13D22
102
}
102
{ACAD_REACTORS
330
86
102
}
330
86
100
AcDbTableStyle
280
     0
  3
Standard
 70
     0
 71
     0
 40
1.5
 41
1.5
280
     0
281
     0
  7
Arial
140
4.5
170
     2
 62
     0
 63
     7
283
     0
 90
        4
 91
        0
  1

274
    -2
284
     1
 64
     0
275
    -2
285
     1
 65
     0
276
    -2
286
     1
 66
     0
277
    -2
287
     1
 67
     0
278
    -2
288
     1
 68
     0
279
    -2
289
     1
 69
     0
  7
Arial
140
6.0
170
     5
 62
     1
 63
   254
421
 14079702
283
     1
 90
        4
 91
        0
  1

274
    -2
284
     1
 64
     0
275
    -2
285
     1
 65
     0
276
    -2
286
     1
 66
     0
277
    -2
287
     1
 67
     0
278
    -2
288
     1
 68
     0
279
    -2
289
     1
 69
     0
  7
Arial
140
4.5
170
     5
 62
     5
 63
     7
283
     0
 90
        4
 91
        0
  1

274
    -2
284
     1
 64
     0
275
    -2
285
     1
 65
     0
276
    -2
286
     1
 66
     0
277
    -2
287
     1
 67
     0
278
    -2
288
     1
 68
     0
279
    -2
289
     1
 69
     0
  0
TABLESTYLE
  5
87
102
{ACAD_XDICTIONARY
360
13D20
102
}
102
{ACAD_REACTORS
330
86
102
}
330
86
100
AcDbTableStyle
280
     0
  3
Standard
 70
     0
 71
     0
 40
0.06
 41
0.06
280
     0
281
     0
  7
Standard
140
0.18
170
     2
 62
     0
 63
     7
283
     0
 90
        4
 91
        0
  1

274
    -2
284
     1
 64
     0
275
    -2
285
     1
 65
     0
276
    -2
286
     1
 66
     0
277
    -2
287
     1
 67
     0
278
    -2
288
     1
 68
     0
279
    -2
289
     1
 69
     0
  7
Standard
140
0.25
170
     5
 62
     0
 63
     7
283
     0
 90
        4
 91
        0
  1

274
    -2
284
     1
 64
     0
275
    -2
285
     1
 65
     0
276
    -2
286
     1
 66
     0
277
    -2
287
     1
 67
     0
278
    -2
288
     1
 68
     0
279
    -2
289
     1
 69
     0
  7
Standard
140
0.18
170
     5
 62
     0
 63
     7
283
     0
 90
        4
 91
        0
  1

274
    -2
284
     1
 64
     0
275
    -2
285
     1
 65
     0
276
    -2
286
     1
 66
     0
277
    -2
287
     1
 67
     0
278
    -2
288
     1
 68
     0
279
    -2
289
     1
 69
     0
  0
VISUALSTYLE
  5
13CD8
102
{ACAD_XDICTIONARY
360
13E3C
102
}
102
{ACAD_REACTORS
330
13CD2
102
}
330
13CD2
100
AcDbVisualStyle
  2
2dWireframe
 70
     4
177
     2
291
     0
 71
     0
176
     1
 72
     2
176
     1
 73
     0
176
     1
 90
        0
176
     1
 40
0.6
176
     1
 41
30.0
176
     1
 63
     7
421
 16777215
176
     1
 74
     1
176
     1
 91
        4
176
     1
 64
     7
176
     1
 65
   257
176
     1
 75
     1
176
     1
175
     1
176
     1
 42
1.0
176
     1
 92
        0
176
     1
 66
   257
176
     1
 43
1.0
176
     1
 76
     1
176
     1
 77
     6
176
     1
 78
     2
176
     1
 67
     7
176
     1
 79
     5
176
     1
170
     0
176
     1
171
     0
176
     1
290
     0
176
     1
 93
        1
176
     1
 44
0.0
176
     1
173
     0
176
     1
1001
ACAD
1000
AcDbSavedByObjectVersion
1070
     0
  0
VISUALSTYLE
  5
13CDA
102
{ACAD_XDICTIONARY
360
13E40
102
}
102
{ACAD_REACTORS
330
13CD2
102
}
330
13CD2
100
AcDbVisualStyle
  2
3D Hidden
 70
     6
177
     2
291
     0
 71
     1
176
     1
 72
     2
176
     1
 73
     2
176
     1
 90
        0
176
     1
 40
0.6
176
     1
 41
30.0
176
     1
 63
     7
421
 16777215
176
     1
 74
     2
176
     1
 91
        2
176
     1
 64
     7
176
     1
 65
   257
176
     1
 75
     2
176
     1
175
     1
176
     1
 42
40.0
176
     1
 92
        0
176
     1
 66
   257
176
     1
 43
1.0
176
     1
 76
     1
176
     1
 77
     6
176
     1
 78
     2
176
     1
 67
     7
176
     1
 79
     3
176
     1
170
     0
176
     1
171
     0
176
     1
290
     0
176
     1
 93
        1
176
     1
 44
0.0
176
     1
173
     0
176
     1
1001
ACAD
1000
AcDbSavedByObjectVersion
1070
     0
  0
VISUALSTYLE
  5
13CD9
102
{ACAD_XDICTIONARY
360
13E3E
102
}
102
{ACAD_REACTORS
330
13CD2
102
}
330
13CD2
100
AcDbVisualStyle
  2
3dWireframe
 70
     5
177
     2
291
     0
 71
     0
176
     1
 72
     2
176
     1
 73
     0
176
     1
 90
        0
176
     1
 40
0.6
176
     1
 41
30.0
176
     1
 63
     7
421
 16777215
176
     1
 74
     1
176
     1
 91
        4
176
     1
 64
     7
176
     1
 65
   257
176
     1
 75
     1
176
     1
175
     1
176
     1
 42
1.0
176
     1
 92
        0
176
     1
 66
   257
176
     1
 43
1.0
176
     1
 76
     1
176
     1
 77
     6
176
     1
 78
     2
176
     1
 67
     7
176
     1
 79
     5
176
     1
170
     0
176
     1
171
     0
176
     1
290
     0
176
     1
 93
        1
176
     1
 44
0.0
176
     1
173
     0
176
     1
1001
ACAD
1000
AcDbSavedByObjectVersion
1070
     0
  0
VISUALSTYLE
  5
13CD7
102
{ACAD_XDICTIONARY
360
13E3A
102
}
102
{ACAD_REACTORS
330
13CD2
102
}
330
13CD2
100
AcDbVisualStyle
  2
Basic
 70
     7
177
     2
291
     1
 71
     1
176
     1
 72
     0
176
     1
 73
     1
176
     1
 90
        0
176
     1
 40
0.6
176
     1
 41
30.0
176
     1
 63
     7
421
 16777215
176
     1
 74
     0
176
     1
 91
        4
176
     1
 64
     7
176
     1
 65
   257
176
     1
 75
     1
176
     1
175
     1
176
     1
 42
1.0
176
     1
 92
        8
176
     1
 66
     7
176
     1
 43
1.0
176
     1
 76
     1
176
     1
 77
     6
176
     1
 78
     2
176
     1
 67
     7
176
     1
 79
     5
176
     1
170
     0
176
     1
171
     0
176
     1
290
     0
176
     1
 93
        1
176
     1
 44
0.0
176
     1
173
     0
176
     1
1001
ACAD
1000
AcDbSavedByObjectVersion
1070
     0
  0
VISUALSTYLE
  5
13CDE
102
{ACAD_XDICTIONARY
360
13E48
102
}
102
{ACAD_REACTORS
330
13CD2
102
}
330
13CD2
100
AcDbVisualStyle
  2
Brighten
 70
    12
177
     2
291
     1
 71
     2
176
     1
 72
     2
176
     1
 73
     0
176
     1
 90
        0
176
     1
 40
0.6
176
     1
 41
30.0
176
     1
 63
     7
421
 16777215
176
     1
 74
     1
176
     1
 91
        4
176
     1
 64
     7
176
     1
 65
   257
176
     1
 75
     1
176
     1
175
     1
176
     1
 42
1.0
176
     1
 92
        8
176
     1
 66
     7
176
     1
 43
1.0
176
     1
 76
     1
176
     1
 77
     6
176
     1
 78
     2
176
     1
 67
     7
176
     1
 79
     5
176
     1
170
     0
176
     1
171
     0
176
     1
290
     0
176
     1
 93
        1
176
     1
 44
50.0
176
     1
173
     0
176
     1
1001
ACAD
1000
AcDbSavedByObjectVersion
1070
     0
  0
VISUALSTYLE
  5
13CE2
102
{ACAD_XDICTIONARY
360
13E50
102
}
102
{ACAD_REACTORS
330
13CD2
102
}
330
13CD2
100
AcDbVisualStyle
  2
ColorChange
 70
    16
177
     2
291
     1
 71
     2
176
     1
 72
     2
176
     1
 73
     3
176
     1
 90
        0
176
     1
 40
0.6
176
     1
 41
30.0
176
     1
 63
     8
421
  8421504
176
     1
 74
     1
176
     1
 91
        4
176
     1
 64
     7
176
     1
 65
   257
176
     1
 75
     1
176
     1
175
     1
176
     1
 42
1.0
176
     1
 92
        8
176
     1
 66
     8
424
  8421504
176
     1
 43
1.0
176
     1
 76
     1
176
     1
 77
     6
176
     1
 78
     2
176
     1
 67
     7
176
     1
 79
     5
176
     1
170
     0
176
     1
171
     0
176
     1
290
     0
176
     1
 93
        1
176
     1
 44
0.0
176
     1
173
     0
176
     1
1001
ACAD
1000
AcDbSavedByObjectVersion
1070
     0
  0
VISUALSTYLE
  5
13CDB
102
{ACAD_XDICTIONARY
360
13E42
102
}
102
{ACAD_REACTORS
330
13CD2
102
}
330
13CD2
100
AcDbVisualStyle
  2
Conceptual
 70
     9
177
     2
291
     0
 71
     3
176
     1
 72
     2
176
     1
 73
     0
176
     1
 90
        0
176
     1
 40
0.6
176
     1
 41
30.0
176
     1
 63
     7
421
 16777215
176
     1
 74
     2
176
     1
 91
        2
176
     1
 64
     7
176
     1
 65
   257
176
     1
 75
     1
176
     1
175
     1
176
     1
 42
40.0
176
     1
 92
        8
176
     1
 66
     7
176
     1
 43
1.0
176
     1
 76
     1
176
     1
 77
     6
176
     1
 78
     2
176
     1
 67
     7
176
     1
 79
     3
176
     1
170
     0
176
     1
171
     0
176
     1
290
     0
176
     1
 93
        1
176
     1
 44
0.0
176
     1
173
     0
176
     1
1001
ACAD
1000
AcDbSavedByObjectVersion
1070
     0
  0
VISUALSTYLE
  5
13CDD
102
{ACAD_XDICTIONARY
360
13E46
102
}
102
{ACAD_REACTORS
330
13CD2
102
}
330
13CD2
100
AcDbVisualStyle
  2
Dim
 70
    11
177
     2
291
     1
 71
     2
176
     1
 72
     2
176
     1
 73
     0
176
     1
 90
        0
176
     1
 40
0.6
176
     1
 41
30.0
176
     1
 63
     7
421
 16777215
176
     1
 74
     1
176
     1
 91
        4
176
     1
 64
     7
176
     1
 65
   257
176
     1
 75
     1
176
     1
175
     1
176
     1
 42
1.0
176
     1
 92
        8
176
     1
 66
     7
176
     1
 43
1.0
176
     1
 76
     1
176
     1
 77
     6
176
     1
 78
     2
176
     1
 67
     7
176
     1
 79
     5
176
     1
170
     0
176
     1
171
     0
176
     1
290
     0
176
     1
 93
        1
176
     1
 44
-50.0
176
     1
173
     0
176
     1
1001
ACAD
1000
AcDbSavedByObjectVersion
1070
     0
  0
VISUALSTYLE
  5
13D67
102
{ACAD_XDICTIONARY
360
13E56
102
}
102
{ACAD_REACTORS
330
13CD2
102
}
330
13CD2
100
AcDbVisualStyle
  2
EdgeColorOff
 70
    22
177
     2
291
     1
 71
     2
176
     0
 72
     2
176
     0
 73
     0
176
     0
 90
        0
176
     0
 40
0.6
176
     0
 41
30.0
176
     0
 63
     7
421
 16777215
176
     0
 74
     1
176
     0
 91
        4
176
     0
 64
     7
176
     0
 65
   257
176
     0
 75
     1
176
     0
175
     1
176
     0
 42
1.0
176
     0
 92
        8
176
     2
 66
     7
176
     0
 43
1.0
176
     0
 76
     1
176
     0
 77
     6
176
     0
 78
     2
176
     0
 67
     7
176
     0
 79
     5
176
     0
170
     0
176
     0
171
     0
176
     0
290
     0
176
     0
 93
        1
176
     0
 44
0.0
176
     0
173
     0
176
     0
1001
ACAD
1000
AcDbSavedByObjectVersion
1070
     0
  0
VISUALSTYLE
  5
13CE1
102
{ACAD_XDICTIONARY
360
13E4E
102
}
102
{ACAD_REACTORS
330
13CD2
102
}
330
13CD2
100
AcDbVisualStyle
  2
Facepattern
 70
    15
177
     2
291
     1
 71
     2
176
     1
 72
     2
176
     1
 73
     0
176
     1
 90
        0
176
     1
 40
0.6
176
     1
 41
30.0
176
     1
 63
     7
421
 16777215
176
     1
 74
     1
176
     1
 91
        4
176
     1
 64
     7
176
     1
 65
   257
176
     1
 75
     1
176
     1
175
     1
176
     1
 42
1.0
176
     1
 92
        8
176
     1
 66
     7
176
     1
 43
1.0
176
     1
 76
     1
176
     1
 77
     6
176
     1
 78
     2
176
     1
 67
     7
176
     1
 79
     5
176
     1
170
     0
176
     1
171
     0
176
     1
290
     0
176
     1
 93
        1
176
     1
 44
0.0
176
     1
173
     0
176
     1
1001
ACAD
1000
AcDbSavedByObjectVersion
1070
     0
  0
VISUALSTYLE
  5
13CD3
102
{ACAD_XDICTIONARY
360
13E32
102
}
102
{ACAD_REACTORS
330
13CD2
102
}
330
13CD2
100
AcDbVisualStyle
  2
Flat
 70
     0
177
     2
291
     1
 71
     2
176
     1
 72
     1
176
     1
 73
     1
176
     1
 90
        2
176
     1
 40
0.6
176
     1
 41
30.0
176
     1
 63
     7
421
 16777215
176
     1
 74
     0
176
     1
 91
        4
176
     1
 64
     7
176
     1
 65
   257
176
     1
 75
     1
176
     1
175
     1
176
     1
 42
1.0
176
     1
 92
        8
176
     1
 66
     7
176
     1
 43
1.0
176
     1
 76
     1
176
     1
 77
     6
176
     1
 78
     2
176
     1
 67
     7
176
     1
 79
     5
176
     1
170
     0
176
     1
171
     0
176
     1
290
     0
176
     1
 93
       13
176
     1
 44
0.0
176
     1
173
     0
176
     1
1001
ACAD
1000
AcDbSavedByObjectVersion
1070
     0
  0
VISUALSTYLE
  5
13CD4
102
{ACAD_XDICTIONARY
360
13E34
102
}
102
{ACAD_REACTORS
330
13CD2
102
}
330
13CD2
100
AcDbVisualStyle
  2
FlatWithEdges
 70
     1
177
     2
291
     1
 71
     2
176
     1
 72
     1
176
     1
 73
     1
176
     1
 90
        2
176
     1
 40
0.6
176
     1
 41
30.0
176
     1
 63
     7
421
 16777215
176
     1
 74
     1
176
     1
 91
        4
176
     1
 64
     7
176
     1
 65
   257
176
     1
 75
     1
176
     1
175
     1
176
     1
 42
1.0
176
     1
 92
        0
176
     1
 66
   257
176
     1
 43
1.0
176
     1
 76
     1
176
     1
 77
     6
176
     1
 78
     2
176
     1
 67
     7
176
     1
 79
     5
176
     1
170
     0
176
     1
171
     0
176
     1
290
     0
176
     1
 93
       13
176
     1
 44
0.0
176
     1
173
     0
176
     1
1001
ACAD
1000
AcDbSavedByObjectVersion
1070
     0
  0
VISUALSTYLE
  5
13CD5
102
{ACAD_XDICTIONARY
360
13E36
102
}
102
{ACAD_REACTORS
330
13CD2
102
}
330
13CD2
100
AcDbVisualStyle
  2
Gouraud
 70
     2
177
     2
291
     1
 71
     2
176
     1
 72
     2
176
     1
 73
     1
176
     1
 90
        2
176
     1
 40
0.6
176
     1
 41
30.0
176
     1
 63
     7
421
 16777215
176
     1
 74
     0
176
     1
 91
        4
176
     1
 64
     7
176
     1
 65
   257
176
     1
 75
     1
176
     1
175
     1
176
     1
 42
1.0
176
     1
 92
        0
176
     1
 66
     7
176
     1
 43
1.0
176
     1
 76
     1
176
     1
 77
     6
176
     1
 78
     2
176
     1
 67
     7
176
     1
 79
     5
176
     1
170
     0
176
     1
171
     0
176
     1
290
     0
176
     1
 93
       13
176
     1
 44
0.0
176
     1
173
     0
176
     1
1001
ACAD
1000
AcDbSavedByObjectVersion
1070
     0
  0
VISUALSTYLE
  5
13CD6
102
{ACAD_XDICTIONARY
360
13E38
102
}
102
{ACAD_REACTORS
330
13CD2
102
}
330
13CD2
100
AcDbVisualStyle
  2
GouraudWithEdges
 70
     3
177
     2
291
     1
 71
     2
176
     1
 72
     2
176
     1
 73
     1
176
     1
 90
        2
176
     1
 40
0.6
176
     1
 41
30.0
176
     1
 63
     7
421
 16777215
176
     1
 74
     1
176
     1
 91
        4
176
     1
 64
     7
176
     1
 65
   257
176
     1
 75
     1
176
     1
175
     1
176
     1
 42
1.0
176
     1
 92
        0
176
     1
 66
   257
176
     1
 43
1.0
176
     1
 76
     1
176
     1
 77
     6
176
     1
 78
     2
176
     1
 67
     7
176
     1
 79
     5
176
     1
170
     0
176
     1
171
     0
176
     1
290
     0
176
     1
 93
       13
176
     1
 44
0.0
176
     1
173
     0
176
     1
1001
ACAD
1000
AcDbSavedByObjectVersion
1070
     0
  0
VISUALSTYLE
  5
13D82
102
{ACAD_XDICTIONARY
360
13E5A
102
}
102
{ACAD_REACTORS
330
13CD2
102
}
330
13CD2
100
AcDbVisualStyle
  2
Hidden
 70
     6
177
     2
291
     0
 71
     1
176
     1
 72
     2
176
     1
 73
     2
176
     1
 90
        0
176
     1
 40
0.6
176
     1
 41
30.0
176
     1
 63
     7
421
 16777215
176
     1
 74
     2
176
     1
 91
        2
176
     1
 64
     7
176
     1
 65
   257
176
     1
 75
     2
176
     1
175
     1
176
     1
 42
40.0
176
     1
 92
        0
176
     1
 66
   257
176
     1
 43
1.0
176
     1
 76
     1
176
     1
 77
     6
176
     1
 78
     2
176
     1
 67
     7
176
     1
 79
     3
176
     1
170
     0
176
     1
171
     0
176
     1
290
     0
176
     1
 93
        1
176
     1
 44
0.0
176
     1
173
     0
176
     1
1001
ACAD
1000
AcDbSavedByObjectVersion
1070
     0
  0
VISUALSTYLE
  5
13D65
102
{ACAD_XDICTIONARY
360
13E52
102
}
102
{ACAD_REACTORS
330
13CD2
102
}
330
13CD2
100
AcDbVisualStyle
  2
JitterOff
 70
    20
177
     2
291
     1
 71
     2
176
     0
 72
     2
176
     0
 73
     0
176
     0
 90
        0
176
     0
 40
0.6
176
     0
 41
30.0
176
     0
 63
     7
421
 16777215
176
     0
 74
     1
176
     0
 91
        4
176
     0
 64
     7
176
     0
 65
   257
176
     0
 75
     1
176
     0
175
     1
176
     0
 42
1.0
176
     0
 92
       10
176
     2
 66
     7
176
     0
 43
1.0
176
     0
 76
     1
176
     0
 77
     6
176
     0
 78
     2
176
     0
 67
     7
176
     0
 79
     5
176
     0
170
     0
176
     0
171
     0
176
     0
290
     0
176
     0
 93
        1
176
     0
 44
0.0
176
     0
173
     0
176
     0
1001
ACAD
1000
AcDbSavedByObjectVersion
1070
     0
  0
VISUALSTYLE
  5
13CE0
102
{ACAD_XDICTIONARY
360
13E4C
102
}
102
{ACAD_REACTORS
330
13CD2
102
}
330
13CD2
100
AcDbVisualStyle
  2
Linepattern
 70
    14
177
     2
291
     1
 71
     2
176
     1
 72
     2
176
     1
 73
     0
176
     1
 90
        0
176
     1
 40
0.6
176
     1
 41
30.0
176
     1
 63
     7
421
 16777215
176
     1
 74
     1
176
     1
 91
        4
176
     1
 64
     7
176
     1
 65
   257
176
     1
 75
     7
176
     1
175
     7
176
     1
 42
1.0
176
     1
 92
        8
176
     1
 66
     7
176
     1
 43
1.0
176
     1
 76
     1
176
     1
 77
     6
176
     1
 78
     2
176
     1
 67
     7
176
     1
 79
     5
176
     1
170
     0
176
     1
171
     0
176
     1
290
     0
176
     1
 93
        1
176
     1
 44
0.0
176
     1
173
     0
176
     1
1001
ACAD
1000
AcDbSavedByObjectVersion
1070
     0
  0
VISUALSTYLE
  5
13D66
102
{ACAD_XDICTIONARY
360
13E54
102
}
102
{ACAD_REACTORS
330
13CD2
102
}
330
13CD2
100
AcDbVisualStyle
  2
OverhangOff
 70
    21
177
     2
291
     1
 71
     2
176
     0
 72
     2
176
     0
 73
     0
176
     0
 90
        0
176
     0
 40
0.6
176
     0
 41
30.0
176
     0
 63
     7
421
 16777215
176
     0
 74
     1
176
     0
 91
        4
176
     0
 64
     7
176
     0
 65
   257
176
     0
 75
     1
176
     0
175
     1
176
     0
 42
1.0
176
     0
 92
        9
176
     2
 66
     7
176
     0
 43
1.0
176
     0
 76
     1
176
     0
 77
     6
176
     0
 78
     2
176
     0
 67
     7
176
     0
 79
     5
176
     0
170
     0
176
     0
171
     0
176
     0
290
     0
176
     0
 93
        1
176
     0
 44
0.0
176
     0
173
     0
176
     0
1001
ACAD
1000
AcDbSavedByObjectVersion
1070
     0
  0
VISUALSTYLE
  5
13CDC
102
{ACAD_XDICTIONARY
360
13E44
102
}
102
{ACAD_REACTORS
330
13CD2
102
}
330
13CD2
100
AcDbVisualStyle
  2
Realistic
 70
     8
177
     2
291
     0
 71
     2
176
     1
 72
     2
176
     1
 73
     0
176
     1
 90
        0
176
     1
 40
0.6
176
     1
 41
30.0
176
     1
 63
     7
421
 16777215
176
     1
 74
     1
176
     1
 91
        0
176
     1
 64
     7
176
     1
 65
   257
176
     1
 75
     1
176
     1
175
     1
176
     1
 42
1.0
176
     1
 92
        8
176
     1
 66
     8
424
  7895160
176
     1
 43
1.0
176
     1
 76
     1
176
     1
 77
     6
176
     1
 78
     2
176
     1
 67
     7
176
     1
 79
     5
176
     1
170
     0
176
     1
171
     0
176
     1
290
     0
176
     1
 93
       13
176
     1
 44
0.0
176
     1
173
     0
176
     1
1001
ACAD
1000
AcDbSavedByObjectVersion
1070
     0
  0
VISUALSTYLE
  5
13D87
102
{ACAD_XDICTIONARY
360
13E64
102
}
102
{ACAD_REACTORS
330
13CD2
102
}
330
13CD2
100
AcDbVisualStyle
  2
Shaded
 70
    27
177
     2
291
     0
 71
     2
176
     1
 72
     2
176
     1
 73
     1
176
     1
 90
        2
176
     1
 40
0.6
176
     1
 41
30.0
176
     1
 63
     7
421
 16777215
176
     1
 74
     0
176
     1
 91
        4
176
     1
 64
     7
176
     1
 65
   257
176
     1
 75
     1
176
     1
175
     1
176
     1
 42
1.0
176
     1
 92
        8
176
     1
 66
   257
176
     1
 43
1.0
176
     1
 76
     1
176
     1
 77
     6
176
     1
 78
     2
176
     1
 67
     8
425
  7895160
176
     1
 79
     3
176
     1
170
     0
176
     1
171
     0
176
     1
290
     0
176
     1
 93
        5
176
     1
 44
0.0
176
     1
173
     0
176
     1
1001
ACAD
1000
AcDbSavedByObjectVersion
1070
     0
  0
VISUALSTYLE
  5
13D86
102
{ACAD_XDICTIONARY
360
13E62
102
}
102
{ACAD_REACTORS
330
13CD2
102
}
330
13CD2
100
AcDbVisualStyle
  2
Shaded with edges
 70
    26
177
     2
291
     0
 71
     2
176
     1
 72
     2
176
     1
 73
     1
176
     1
 90
        2
176
     1
 40
0.6
176
     1
 41
30.0
176
     1
 63
     7
421
 16777215
176
     1
 74
     1
176
     1
 91
        2
176
     1
 64
     7
176
     1
 65
   257
176
     1
 75
     2
176
     1
175
     1
176
     1
 42
1.0
176
     1
 92
        8
176
     1
 66
   257
176
     1
 43
1.0
176
     1
 76
     1
176
     1
 77
     6
176
     1
 78
     2
176
     1
 67
     7
176
     1
 79
     3
176
     1
170
     0
176
     1
171
     0
176
     1
290
     0
176
     1
 93
        5
176
     1
 44
0.0
176
     1
173
     0
176
     1
1001
ACAD
1000
AcDbSavedByObjectVersion
1070
     0
  0
VISUALSTYLE
  5
13D83
102
{ACAD_XDICTIONARY
360
13E5C
102
}
102
{ACAD_REACTORS
330
13CD2
102
}
330
13CD2
100
AcDbVisualStyle
  2
Shades of Gray
 70
    23
177
     2
291
     0
 71
     2
176
     1
 72
     2
176
     1
 73
     3
176
     1
 90
        0
176
     1
 40
0.6
176
     1
 41
30.0
176
     1
 63
     7
421
 16777215
176
     1
 74
     2
176
     1
 91
        2
176
     1
 64
     7
176
     1
 65
     7
176
     1
 75
     1
176
     1
175
     1
176
     1
 42
40.0
176
     1
 92
        8
176
     1
 66
     7
176
     1
 43
1.0
176
     1
 76
     1
176
     1
 77
     6
176
     1
 78
     2
176
     1
 67
     7
176
     1
 79
     3
176
     1
170
     0
176
     1
171
     0
176
     1
290
     0
176
     1
 93
        1
176
     1
 44
0.0
176
     1
173
     0
176
     1
1001
ACAD
1000
AcDbSavedByObjectVersion
1070
     0
  0
VISUALSTYLE
  5
13D84
102
{ACAD_XDICTIONARY
360
13E5E
102
}
102
{ACAD_REACTORS
330
13CD2
102
}
330
13CD2
100
AcDbVisualStyle
  2
Sketchy
 70
    24
177
     2
291
     0
 71
     1
176
     1
 72
     2
176
     1
 73
     2
176
     1
 90
        0
176
     1
 40
0.6
176
     1
 41
30.0
176
     1
 63
     7
421
 16777215
176
     1
 74
     2
176
     1
 91
        2
176
     1
 64
     7
176
     1
 65
     7
176
     1
 75
     1
176
     1
175
     1
176
     1
 42
40.0
176
     1
 92
       11
176
     1
 66
     7
176
     1
 43
1.0
176
     1
 76
     1
176
     1
 77
     6
176
     1
 78
     2
176
     1
 67
     7
176
     1
 79
     6
176
     1
170
     0
176
     1
171
     0
176
     1
290
     0
176
     1
 93
        1
176
     1
 44
0.0
176
     1
173
     0
176
     1
1001
ACAD
1000
AcDbSavedByObjectVersion
1070
     0
  0
VISUALSTYLE
  5
13CDF
102
{ACAD_XDICTIONARY
360
13E4A
102
}
102
{ACAD_REACTORS
330
13CD2
102
}
330
13CD2
100
AcDbVisualStyle
  2
Thicken
 70
    13
177
     2
291
     1
 71
     2
176
     1
 72
     2
176
     1
 73
     0
176
     1
 90
        0
176
     1
 40
0.6
176
     1
 41
30.0
176
     1
 63
     7
421
 16777215
176
     1
 74
     1
176
     1
 91
        4
176
     1
 64
     7
176
     1
 65
   257
176
     1
 75
     1
176
     1
175
     1
176
     1
 42
1.0
176
     1
 92
       12
176
     1
 66
     7
176
     1
 43
1.0
176
     1
 76
     1
176
     1
 77
     6
176
     1
 78
     2
176
     1
 67
     7
176
     1
 79
     5
176
     1
170
     0
176
     1
171
     0
176
     1
290
     0
176
     1
 93
        1
176
     1
 44
0.0
176
     1
173
     0
176
     1
1001
ACAD
1000
AcDbSavedByObjectVersion
1070
     0
  0
VISUALSTYLE
  5
13D81
102
{ACAD_XDICTIONARY
360
13E58
102
}
102
{ACAD_REACTORS
330
13CD2
102
}
330
13CD2
100
AcDbVisualStyle
  2
Wireframe
 70
     5
177
     2
291
     0
 71
     0
176
     1
 72
     2
176
     1
 73
     0
176
     1
 90
        0
176
     1
 40
0.6
176
     1
 41
30.0
176
     1
 63
     7
421
 16777215
176
     1
 74
     1
176
     1
 91
        4
176
     1
 64
     7
176
     1
 65
   257
176
     1
 75
     1
176
     1
175
     1
176
     1
 42
1.0
176
     1
 92
        0
176
     1
 66
   257
176
     1
 43
1.0
176
     1
 76
     1
176
     1
 77
     6
176
     1
 78
     2
176
     1
 67
     7
176
     1
 79
     3
176
     1
170
     0
176
     1
171
     0
176
     1
290
     0
176
     1
 93
        1
176
     1
 44
0.0
176
     1
173
     0
176
     1
1001
ACAD
1000
AcDbSavedByObjectVersion
1070
     0
  0
VISUALSTYLE
  5
13D85
102
{ACAD_XDICTIONARY
360
13E60
102
}
102
{ACAD_REACTORS
330
13CD2
102
}
330
13CD2
100
AcDbVisualStyle
  2
X-Ray
 70
    25
177
     2
291
     0
 71
     2
176
     1
 72
     2
176
     1
 73
     1
176
     1
 90
        1
176
     1
 40
0.5
176
     1
 41
30.0
176
     1
 63
     7
421
 16777215
176
     1
 74
     1
176
     1
 91
        0
176
     1
 64
     7
176
     1
 65
   257
176
     1
 75
     1
176
     1
175
     1
176
     1
 42
1.0
176
     1
 92
        8
176
     1
 66
     7
176
     1
 43
1.0
176
     1
 76
     1
176
     1
 77
     6
176
     1
 78
     2
176
     1
 67
     7
176
     1
 79
     3
176
     1
170
     0
176
     1
171
     0
176
     1
290
     0
176
     1
 93
       13
176
     1
 44
0.0
176
     1
173
     0
176
     1
1001
ACAD
1000
AcDbSavedByObjectVersion
1070
     0
  0
DICTIONARYVAR
  5
13D29
102
{ACAD_REACTORS
330
66
102
}
330
66
100
DictionaryVariables
280
     0
  1
1:1
  0
DICTIONARYVAR
  5
13D27
102
{ACAD_REACTORS
330
66
102
}
330
66
100
DictionaryVariables
280
     0
  1
STANDARD
  0
DICTIONARYVAR
  5
364
102
{ACAD_REACTORS
330
66
102
}
330
66
100
DictionaryVariables
280
     0
  1
STANDARD
  0
DICTIONARYVAR
  5
13DA5
102
{ACAD_REACTORS
330
66
102
}
330
66
100
DictionaryVariables
280
     0
  1
Imperial24
  0
DICTIONARYVAR
  5
13DA6
102
{ACAD_REACTORS
330
66
102
}
330
66
100
DictionaryVariables
280
     0
  1
Imperial24
  0
DICTIONARYVAR
  5
67
102
{ACAD_REACTORS
330
66
102
}
330
66
100
DictionaryVariables
280
     0
  1
2
  0
DICTIONARYVAR
  5
6B
102
{ACAD_REACTORS
330
66
102
}
330
66
100
DictionaryVariables
280
     0
  1
1
  0
DICTIONARYVAR
  5
13D7E
102
{ACAD_REACTORS
330
66
102
}
330
66
100
DictionaryVariables
280
     0
  1
1
  0
DICTIONARYVAR
  5
13D7F
102
{ACAD_REACTORS
330
66
102
}
330
66
100
DictionaryVariables
280
     0
  1
15
  0
DICTIONARYVAR
  5
13D2A
102
{ACAD_REACTORS
330
66
102
}
330
66
100
DictionaryVariables
280
     0
  1
0
  0
DICTIONARYVAR
  5
13D28
102
{ACAD_REACTORS
330
66
102
}
330
66
100
DictionaryVariables
280
     0
  1
0
  0
DICTIONARYVAR
  5
8305
102
{ACAD_REACTORS
330
66
102
}
330
66
100
DictionaryVariables
280
     0
  1

  0
DICTIONARY
  5
13E31
102
{ACAD_REACTORS
330
13E2F
102
}
330
13E2F
100
AcDbDictionary
281
     1
  0
DICTIONARY
  5
13E30
102
{ACAD_REACTORS
330
13E2F
102
}
330
13E2F
100
AcDbDictionary
281
     1
  3
2233888975264
350
13E2A
  3
2233888975280
350
13E2B
  3
2233888975296
350
13E2C
  3
2233888975312
350
13E2D
  3
2233888975328
350
13E2E
  0
XRECORD
  5
1402
102
{ACAD_REACTORS
330
1401
102
}
330
1401
100
AcDbXrecord
280
     1
 40
1.0
  0
XRECORD
  5
12E50
102
{ACAD_REACTORS
330
1401
102
}
330
1401
100
AcDbXrecord
280
     1
 40
2.0
  0
DICTIONARY
  5
13DEF
102
{ACAD_REACTORS
330
13DEE
102
}
330
13DEE
100
AcDbDictionary
281
     1
  3
*A1
350
13DF0
  0
DICTIONARY
  5
13E68
330
13D8B
100
AcDbDictionary
280
     1
281
     1
  3
ACAD_XREC_ROUNDTRIP
360
13E69
  0
DICTIONARY
  5
11F01
330
59
100
AcDbDictionary
280
     1
281
     1
  0
DICTIONARY
  5
11F0E
330
5E
100
AcDbDictionary
280
     1
281
     1
  0
DICTIONARY
  5
13D7C
330
22
100
AcDbDictionary
280
     1
281
     1
  0
DICTIONARY
  5
13CC3
330
13CC2
100
AcDbDictionary
280
     1
281
     1
  3
BUMPTILE
360
13CC5
  3
DIFFUSETILE
360
13CC4
  3
OPACITYTILE
360
13CC8
  3
REFLECTIONTILE
360
13CC7
  3
REFRACTIONTILE
360
13CC9
  3
SPECULARTILE
360
13CC6
  0
DICTIONARY
  5
13CBB
330
13CBA
100
AcDbDictionary
280
     1
281
     1
  3
BUMPTILE
360
13CBD
  3
DIFFUSETILE
360
13CBC
  3
OPACITYTILE
360
13CC0
  3
REFLECTIONTILE
360
13CBF
  3
REFRACTIONTILE
360
13CC1
  3
SPECULARTILE
360
13CBE
  0
DICTIONARY
  5
13CCB
330
13CCA
100
AcDbDictionary
280
     1
281
     1
  3
BUMPTILE
360
13CCD
  3
DIFFUSETILE
360
13CCC
  3
OPACITYTILE
360
13CD0
  3
REFLECTIONTILE
360
13CCF
  3
REFRACTIONTILE
360
13CD1
  3
SPECULARTILE
360
13CCE
  0
DICTIONARY
  5
13E66
330
13D89
100
AcDbDictionary
280
     1
281
     1
  3
ACAD_XREC_ROUNDTRIP
360
13E67
  0
DICTIONARY
  5
13D24
330
37C9
100
AcDbDictionary
280
     1
281
     1
  3
ACAD_ROUNDTRIP_2008_TABLESTYLE_CELLSTYLEMAP
360
13E26
  0
DICTIONARY
  5
13D22
330
36AB
100
AcDbDictionary
280
     1
281
     1
  3
ACAD_ROUNDTRIP_2008_TABLESTYLE_CELLSTYLEMAP
360
13E25
  0
DICTIONARY
  5
13D20
330
87
100
AcDbDictionary
280
     1
281
     1
  3
ACAD_ROUNDTRIP_2008_TABLESTYLE_CELLSTYLEMAP
360
13E24
  0
DICTIONARY
  5
13E3C
330
13CD8
100
AcDbDictionary
280
     1
281
     1
  3
ACAD_XREC_ROUNDTRIP
360
13E3D
  0
DICTIONARY
  5
13E40
330
13CDA
100
AcDbDictionary
280
     1
281
     1
  3
ACAD_XREC_ROUNDTRIP
360
13E41
  0
DICTIONARY
  5
13E3E
330
13CD9
100
AcDbDictionary
280
     1
281
     1
  3
ACAD_XREC_ROUNDTRIP
360
13E3F
  0
DICTIONARY
  5
13E3A
330
13CD7
100
AcDbDictionary
280
     1
281
     1
  3
ACAD_XREC_ROUNDTRIP
360
13E3B
  0
DICTIONARY
  5
13E48
330
13CDE
100
AcDbDictionary
280
     1
281
     1
  3
ACAD_XREC_ROUNDTRIP
360
13E49
  0
DICTIONARY
  5
13E50
330
13CE2
100
AcDbDictionary
280
     1
281
     1
  3
ACAD_XREC_ROUNDTRIP
360
13E51
  0
DICTIONARY
  5
13E42
330
13CDB
100
AcDbDictionary
280
     1
281
     1
  3
ACAD_XREC_ROUNDTRIP
360
13E43
  0
DICTIONARY
  5
13E46
330
13CDD
100
AcDbDictionary
280
     1
281
     1
  3
ACAD_XREC_ROUNDTRIP
360
13E47
  0
DICTIONARY
  5
13E56
330
13D67
100
AcDbDictionary
280
     1
281
     1
  3
ACAD_XREC_ROUNDTRIP
360
13E57
  0
DICTIONARY
  5
13E4E
330
13CE1
100
AcDbDictionary
280
     1
281
     1
  3
ACAD_XREC_ROUNDTRIP
360
13E4F
  0
DICTIONARY
  5
13E32
330
13CD3
100
AcDbDictionary
280
     1
281
     1
  3
ACAD_XREC_ROUNDTRIP
360
13E33
  0
DICTIONARY
  5
13E34
330
13CD4
100
AcDbDictionary
280
     1
281
     1
  3
ACAD_XREC_ROUNDTRIP
360
13E35
  0
DICTIONARY
  5
13E36
330
13CD5
100
AcDbDictionary
280
     1
281
     1
  3
ACAD_XREC_ROUNDTRIP
360
13E37
  0
DICTIONARY
  5
13E38
330
13CD6
100
AcDbDictionary
280
     1
281
     1
  3
ACAD_XREC_ROUNDTRIP
360
13E39
  0
DICTIONARY
  5
13E5A
330
13D82
100
AcDbDictionary
280
     1
281
     1
  3
ACAD_XREC_ROUNDTRIP
360
13E5B
  0
DICTIONARY
  5
13E52
330
13D65
100
AcDbDictionary
280
     1
281
     1
  3
ACAD_XREC_ROUNDTRIP
360
13E53
  0
DICTIONARY
  5
13E4C
330
13CE0
100
AcDbDictionary
280
     1
281
     1
  3
ACAD_XREC_ROUNDTRIP
360
13E4D
  0
DICTIONARY
  5
13E54
330
13D66
100
AcDbDictionary
280
     1
281
     1
  3
ACAD_XREC_ROUNDTRIP
360
13E55
  0
DICTIONARY
  5
13E44
330
13CDC
100
AcDbDictionary
280
     1
281
     1
  3
ACAD_XREC_ROUNDTRIP
360
13E45
  0
DICTIONARY
  5
13E64
330
13D87
100
AcDbDictionary
280
     1
281
     1
  3
ACAD_XREC_ROUNDTRIP
360
13E65
  0
DICTIONARY
  5
13E62
330
13D86
100
AcDbDictionary
280
     1
281
     1
  3
ACAD_XREC_ROUNDTRIP
360
13E63
  0
DICTIONARY
  5
13E5C
330
13D83
100
AcDbDictionary
280
     1
281
     1
  3
ACAD_XREC_ROUNDTRIP
360
13E5D
  0
DICTIONARY
  5
13E5E
330
13D84
100
AcDbDictionary
280
     1
281
     1
  3
ACAD_XREC_ROUNDTRIP
360
13E5F
  0
DICTIONARY
  5
13E4A
330
13CDF
100
AcDbDictionary
280
     1
281
     1
  3
ACAD_XREC_ROUNDTRIP
360
13E4B
  0
DICTIONARY
  5
13E58
330
13D81
100
AcDbDictionary
280
     1
281
     1
  3
ACAD_XREC_ROUNDTRIP
360
13E59
  0
DICTIONARY
  5
13E60
330
13D85
100
AcDbDictionary
280
     1
281
     1
  3
ACAD_XREC_ROUNDTRIP
360
13E61
  0
XRECORD
  5
13E2A
102
{ACAD_REACTORS
330
13E30
102
}
330
13E30
100
AcDbXrecord
280
     1
  1
AcDb_Thumbnail_Schema
102
{ATTRRECORD
341
13E2B
  2
AcDbDs::TreatedAsObjectData
280
     1
291
     1
102
ATTRRECORD}
102
{ATTRRECORD
341
13E2C
  2
AcDbDs::Legacy
280
     1
291
     1
102
ATTRRECORD}
  2
AcDbDs::ID
280
    10
 91
        8
102
{ATTRRECORD
341
13E2D
  2
AcDs:Indexable
280
     1
291
     1
102
ATTRRECORD}
102
{ATTRRECORD
341
13E2E
  2
AcDbDs::HandleAttribute
280
     7
282
     1
102
ATTRRECORD}
  2
Thumbnail_Data
280
    15
 91
        0
  0
XRECORD
  5
13E2B
102
{ACAD_REACTORS
330
13E30
102
}
330
13E30
100
AcDbXrecord
280
     1
  1
AcDbDs::TreatedAsObjectDataSchema
  2
AcDbDs::TreatedAsObjectData
280
     1
 91
        0
  0
XRECORD
  5
13E2C
102
{ACAD_REACTORS
330
13E30
102
}
330
13E30
100
AcDbXrecord
280
     1
  1
AcDbDs::LegacySchema
  2
AcDbDs::Legacy
280
     1
 91
        0
  0
XRECORD
  5
13E2D
102
{ACAD_REACTORS
330
13E30
102
}
330
13E30
100
AcDbXrecord
280
     1
  1
AcDbDs::IndexedPropertySchema
  2
AcDs:Indexable
280
     1
 91
        0
  0
XRECORD
  5
13E2E
102
{ACAD_REACTORS
330
13E30
102
}
330
13E30
100
AcDbXrecord
280
     1
  1
AcDbDs::HandleAttributeSchema
  2
AcDbDs::HandleAttribute
280
     7
 91
        1
284
     1
  0
ACDB_MTEXTOBJECTCONTEXTDATA_CLASS
  5
13DF0
102
{ACAD_REACTORS
330
13DEF
102
}
330
13DEF
100
AcDbObjectContextData
 70
     4
290
     1
100
AcDbAnnotScaleObjectContextData
340
13CE4
 70
     1
 10
1.0
 20
0.0
 30
0.0
 11
29.34068713757962
 21
4.434261153705559
 31
0.0
 40
15.04930642254516
 41
0.0
 42
14.90088818146716
 43
1.240377629448876
 71
     0
  0
XRECORD
  5
13E69
102
{ACAD_REACTORS
330
13E68
102
}
330
13E68
100
AcDbXrecord
280
     1
102
DISPLAYNAME
  1
Imperial24
102
FLAGS
 90
        0
  0
XRECORD
  5
13CC5
102
{ACAD_REACTORS
330
13CC3
102
}
330
13CC3
100
AcDbXrecord
280
     1
270
     1
271
     1
  0
XRECORD
  5
13CC4
102
{ACAD_REACTORS
330
13CC3
102
}
330
13CC3
100
AcDbXrecord
280
     1
270
     1
271
     1
  0
XRECORD
  5
13CC8
102
{ACAD_REACTORS
330
13CC3
102
}
330
13CC3
100
AcDbXrecord
280
     1
270
     1
271
     1
  0
XRECORD
  5
13CC7
102
{ACAD_REACTORS
330
13CC3
102
}
330
13CC3
100
AcDbXrecord
280
     1
270
     1
271
     1
  0
XRECORD
  5
13CC9
102
{ACAD_REACTORS
330
13CC3
102
}
330
13CC3
100
AcDbXrecord
280
     1
270
     1
271
     1
  0
XRECORD
  5
13CC6
102
{ACAD_REACTORS
330
13CC3
102
}
330
13CC3
100
AcDbXrecord
280
     1
270
     1
271
     1
  0
XRECORD
  5
13CBD
102
{ACAD_REACTORS
330
13CBB
102
}
330
13CBB
100
AcDbXrecord
280
     1
270
     1
271
     1
  0
XRECORD
  5
13CBC
102
{ACAD_REACTORS
330
13CBB
102
}
330
13CBB
100
AcDbXrecord
280
     1
270
     1
271
     1
  0
XRECORD
  5
13CC0
102
{ACAD_REACTORS
330
13CBB
102
}
330
13CBB
100
AcDbXrecord
280
     1
270
     1
271
     1
  0
XRECORD
  5
13CBF
102
{ACAD_REACTORS
330
13CBB
102
}
330
13CBB
100
AcDbXrecord
280
     1
270
     1
271
     1
  0
XRECORD
  5
13CC1
102
{ACAD_REACTORS
330
13CBB
102
}
330
13CBB
100
AcDbXrecord
280
     1
270
     1
271
     1
  0
XRECORD
  5
13CBE
102
{ACAD_REACTORS
330
13CBB
102
}
330
13CBB
100
AcDbXrecord
280
     1
270
     1
271
     1
  0
XRECORD
  5
13CCD
102
{ACAD_REACTORS
330
13CCB
102
}
330
13CCB
100
AcDbXrecord
280
     1
270
     1
271
     1
  0
XRECORD
  5
13CCC
102
{ACAD_REACTORS
330
13CCB
102
}
330
13CCB
100
AcDbXrecord
280
     1
270
     1
271
     1
  0
XRECORD
  5
13CD0
102
{ACAD_REACTORS
330
13CCB
102
}
330
13CCB
100
AcDbXrecord
280
     1
270
     1
271
     1
  0
XRECORD
  5
13CCF
102
{ACAD_REACTORS
330
13CCB
102
}
330
13CCB
100
AcDbXrecord
280
     1
270
     1
271
     1
  0
XRECORD
  5
13CD1
102
{ACAD_REACTORS
330
13CCB
102
}
330
13CCB
100
AcDbXrecord
280
     1
270
     1
271
     1
  0
XRECORD
  5
13CCE
102
{ACAD_REACTORS
330
13CCB
102
}
330
13CCB
100
AcDbXrecord
280
     1
270
     1
271
     1
  0
XRECORD
  5
13E67
102
{ACAD_REACTORS
330
13E66
102
}
330
13E66
100
AcDbXrecord
280
     1
102
DISPLAYNAME
  1
Imperial24
102
FLAGS
 90
        0
  0
CELLSTYLEMAP
  5
13E26
102
{ACAD_REACTORS
330
13D24
102
}
330
13D24
100
AcDbCellStyleMap
 90
        3
300
CELLSTYLE
  1
TABLEFORMAT_BEGIN
 90
        5
170
     1
 91
        0
 92
    32768
 62
   257
 93
        1
300
CONTENTFORMAT
  1
CONTENTFORMAT_BEGIN
 90
        0
 91
        0
 92
        4
 93
        0
300

 40
0.0
140
1.0
 94
        5
 62
     1
340
36AA
144
0.25
309
CONTENTFORMAT_END
171
     0
 94
        6
 95
        1
302
GRIDFORMAT
  1
GRIDFORMAT_BEGIN
 90
        0
 91
        1
 62
     0
 92
       -2
340
0
 93
        0
 40
0.045
309
GRIDFORMAT_END
 95
        2
302
GRIDFORMAT
  1
GRIDFORMAT_BEGIN
 90
        0
 91
        1
 62
     0
 92
       -2
340
0
 93
        0
 40
0.045
309
GRIDFORMAT_END
 95
        4
302
GRIDFORMAT
  1
GRIDFORMAT_BEGIN
 90
        0
 91
        1
 62
     0
 92
       -2
340
0
 93
        0
 40
0.045
309
GRIDFORMAT_END
 95
        8
302
GRIDFORMAT
  1
GRIDFORMAT_BEGIN
 90
        0
 91
        1
 62
     0
 92
       -2
340
0
 93
        0
 40
0.045
309
GRIDFORMAT_END
 95
       16
302
GRIDFORMAT
  1
GRIDFORMAT_BEGIN
 90
        0
 91
        1
 62
     0
 92
       -2
340
0
 93
        0
 40
0.045
309
GRIDFORMAT_END
 95
       32
302
GRIDFORMAT
  1
GRIDFORMAT_BEGIN
 90
        0
 91
        1
 62
     0
 92
       -2
340
0
 93
        0
 40
0.045
309
GRIDFORMAT_END
309
TABLEFORMAT_END
  1
CELLSTYLE_BEGIN
 90
        1
 91
        1
300
_TITLE
309
CELLSTYLE_END
300
CELLSTYLE
  1
TABLEFORMAT_BEGIN
 90
        5
170
     1
 91
        0
 92
        0
 62
     9
 93
        1
300
CONTENTFORMAT
  1
CONTENTFORMAT_BEGIN
 90
        0
 91
        0
 92
        4
 93
        0
300

 40
0.0
140
1.0
 94
        5
 62
     5
340
36AA
144
0.18
309
CONTENTFORMAT_END
171
     0
 94
        6
 95
        1
302
GRIDFORMAT
  1
GRIDFORMAT_BEGIN
 90
        0
 91
        1
 62
     0
 92
       -2
340
0
 93
        0
 40
0.045
309
GRIDFORMAT_END
 95
        2
302
GRIDFORMAT
  1
GRIDFORMAT_BEGIN
 90
        0
 91
        1
 62
     0
 92
       -2
340
0
 93
        0
 40
0.045
309
GRIDFORMAT_END
 95
        4
302
GRIDFORMAT
  1
GRIDFORMAT_BEGIN
 90
        0
 91
        1
 62
     0
 92
       -2
340
0
 93
        0
 40
0.045
309
GRIDFORMAT_END
 95
        8
302
GRIDFORMAT
  1
GRIDFORMAT_BEGIN
 90
        0
 91
        1
 62
     0
 92
       -2
340
0
 93
        0
 40
0.045
309
GRIDFORMAT_END
 95
       16
302
GRIDFORMAT
  1
GRIDFORMAT_BEGIN
 90
        0
 91
        1
 62
     0
 92
       -2
340
0
 93
        0
 40
0.045
309
GRIDFORMAT_END
 95
       32
302
GRIDFORMAT
  1
GRIDFORMAT_BEGIN
 90
        0
 91
        1
 62
     0
 92
       -2
340
0
 93
        0
 40
0.045
309
GRIDFORMAT_END
309
TABLEFORMAT_END
  1
CELLSTYLE_BEGIN
 90
        2
 91
        1
300
_HEADER
309
CELLSTYLE_END
300
CELLSTYLE
  1
TABLEFORMAT_BEGIN
 90
        5
170
     1
 91
        0
 92
        0
 62
   257
 93
        1
300
CONTENTFORMAT
  1
CONTENTFORMAT_BEGIN
 90
        0
 91
        0
 92
        4
 93
        0
300

 40
0.0
140
1.0
 94
        2
 62
     0
340
36AA
144
0.18
309
CONTENTFORMAT_END
171
     0
 94
        6
 95
        1
302
GRIDFORMAT
  1
GRIDFORMAT_BEGIN
 90
        0
 91
        1
 62
     0
 92
       -2
340
0
 93
        0
 40
0.045
309
GRIDFORMAT_END
 95
        2
302
GRIDFORMAT
  1
GRIDFORMAT_BEGIN
 90
        0
 91
        1
 62
     0
 92
       -2
340
0
 93
        0
 40
0.045
309
GRIDFORMAT_END
 95
        4
302
GRIDFORMAT
  1
GRIDFORMAT_BEGIN
 90
        0
 91
        1
 62
     0
 92
       -2
340
0
 93
        0
 40
0.045
309
GRIDFORMAT_END
 95
        8
302
GRIDFORMAT
  1
GRIDFORMAT_BEGIN
 90
        0
 91
        1
 62
     0
 92
       -2
340
0
 93
        0
 40
0.045
309
GRIDFORMAT_END
 95
       16
302
GRIDFORMAT
  1
GRIDFORMAT_BEGIN
 90
        0
 91
        1
 62
     0
 92
       -2
340
0
 93
        0
 40
0.045
309
GRIDFORMAT_END
 95
       32
302
GRIDFORMAT
  1
GRIDFORMAT_BEGIN
 90
        0
 91
        1
 62
     0
 92
       -2
340
0
 93
        0
 40
0.045
309
GRIDFORMAT_END
309
TABLEFORMAT_END
  1
CELLSTYLE_BEGIN
 90
        3
 91
        2
300
_DATA
309
CELLSTYLE_END
  0
CELLSTYLEMAP
  5
13E25
102
{ACAD_REACTORS
330
13D22
102
}
330
13D22
100
AcDbCellStyleMap
 90
        3
300
CELLSTYLE
  1
TABLEFORMAT_BEGIN
 90
        5
170
     1
 91
        0
 92
    32768
 62
   254
420
 14079702
 93
        1
300
CONTENTFORMAT
  1
CONTENTFORMAT_BEGIN
 90
        0
 91
        0
 92
        4
 93
        0
300

 40
0.0
140
1.0
 94
        5
 62
     1
340
36AA
144
6.0
309
CONTENTFORMAT_END
171
     1
301
MARGIN
  1
CELLMARGIN_BEGIN
 40
1.5
 40
1.5
 40
1.5
 40
1.5
 40
0.18
 40
0.18
309
CELLMARGIN_END
 94
        6
 95
        1
302
GRIDFORMAT
  1
GRIDFORMAT_BEGIN
 90
        0
 91
        1
 62
     0
 92
       -2
340
0
 93
        0
 40
0.045
309
GRIDFORMAT_END
 95
        2
302
GRIDFORMAT
  1
GRIDFORMAT_BEGIN
 90
        0
 91
        1
 62
     0
 92
       -2
340
0
 93
        0
 40
0.045
309
GRIDFORMAT_END
 95
        4
302
GRIDFORMAT
  1
GRIDFORMAT_BEGIN
 90
        0
 91
        1
 62
     0
 92
       -2
340
0
 93
        0
 40
0.045
309
GRIDFORMAT_END
 95
        8
302
GRIDFORMAT
  1
GRIDFORMAT_BEGIN
 90
        0
 91
        1
 62
     0
 92
       -2
340
0
 93
        0
 40
0.045
309
GRIDFORMAT_END
 95
       16
302
GRIDFORMAT
  1
GRIDFORMAT_BEGIN
 90
        0
 91
        1
 62
     0
 92
       -2
340
0
 93
        0
 40
0.045
309
GRIDFORMAT_END
 95
       32
302
GRIDFORMAT
  1
GRIDFORMAT_BEGIN
 90
        0
 91
        1
 62
     0
 92
       -2
340
0
 93
        0
 40
0.045
309
GRIDFORMAT_END
309
TABLEFORMAT_END
  1
CELLSTYLE_BEGIN
 90
        1
 91
        1
300
_TITLE
309
CELLSTYLE_END
300
CELLSTYLE
  1
TABLEFORMAT_BEGIN
 90
        5
170
     1
 91
        0
 92
        0
 62
   257
 93
        1
300
CONTENTFORMAT
  1
CONTENTFORMAT_BEGIN
 90
        0
 91
        0
 92
        4
 93
        0
300

 40
0.0
140
1.0
 94
        5
 62
     5
340
36AA
144
4.5
309
CONTENTFORMAT_END
171
     1
301
MARGIN
  1
CELLMARGIN_BEGIN
 40
1.5
 40
1.5
 40
1.5
 40
1.5
 40
0.18
 40
0.18
309
CELLMARGIN_END
 94
        6
 95
        1
302
GRIDFORMAT
  1
GRIDFORMAT_BEGIN
 90
        0
 91
        1
 62
     0
 92
       -2
340
0
 93
        0
 40
0.045
309
GRIDFORMAT_END
 95
        2
302
GRIDFORMAT
  1
GRIDFORMAT_BEGIN
 90
        0
 91
        1
 62
     0
 92
       -2
340
0
 93
        0
 40
0.045
309
GRIDFORMAT_END
 95
        4
302
GRIDFORMAT
  1
GRIDFORMAT_BEGIN
 90
        0
 91
        1
 62
     0
 92
       -2
340
0
 93
        0
 40
0.045
309
GRIDFORMAT_END
 95
        8
302
GRIDFORMAT
  1
GRIDFORMAT_BEGIN
 90
        0
 91
        1
 62
     0
 92
       -2
340
0
 93
        0
 40
0.045
309
GRIDFORMAT_END
 95
       16
302
GRIDFORMAT
  1
GRIDFORMAT_BEGIN
 90
        0
 91
        1
 62
     0
 92
       -2
340
0
 93
        0
 40
0.045
309
GRIDFORMAT_END
 95
       32
302
GRIDFORMAT
  1
GRIDFORMAT_BEGIN
 90
        0
 91
        1
 62
     0
 92
       -2
340
0
 93
        0
 40
0.045
309
GRIDFORMAT_END
309
TABLEFORMAT_END
  1
CELLSTYLE_BEGIN
 90
        2
 91
        1
300
_HEADER
309
CELLSTYLE_END
300
CELLSTYLE
  1
TABLEFORMAT_BEGIN
 90
        5
170
     1
 91
        0
 92
        0
 62
   257
 93
        1
300
CONTENTFORMAT
  1
CONTENTFORMAT_BEGIN
 90
        0
 91
        0
 92
        4
 93
        0
300

 40
0.0
140
1.0
 94
        2
 62
     0
340
36AA
144
4.5
309
CONTENTFORMAT_END
171
     1
301
MARGIN
  1
CELLMARGIN_BEGIN
 40
1.5
 40
1.5
 40
1.5
 40
1.5
 40
0.18
 40
0.18
309
CELLMARGIN_END
 94
        6
 95
        1
302
GRIDFORMAT
  1
GRIDFORMAT_BEGIN
 90
        0
 91
        1
 62
     0
 92
       -2
340
0
 93
        0
 40
0.045
309
GRIDFORMAT_END
 95
        2
302
GRIDFORMAT
  1
GRIDFORMAT_BEGIN
 90
        0
 91
        1
 62
     0
 92
       -2
340
0
 93
        0
 40
0.045
309
GRIDFORMAT_END
 95
        4
302
GRIDFORMAT
  1
GRIDFORMAT_BEGIN
 90
        0
 91
        1
 62
     0
 92
       -2
340
0
 93
        0
 40
0.045
309
GRIDFORMAT_END
 95
        8
302
GRIDFORMAT
  1
GRIDFORMAT_BEGIN
 90
        0
 91
        1
 62
     0
 92
       -2
340
0
 93
        0
 40
0.045
309
GRIDFORMAT_END
 95
       16
302
GRIDFORMAT
  1
GRIDFORMAT_BEGIN
 90
        0
 91
        1
 62
     0
 92
       -2
340
0
 93
        0
 40
0.045
309
GRIDFORMAT_END
 95
       32
302
GRIDFORMAT
  1
GRIDFORMAT_BEGIN
 90
        0
 91
        1
 62
     0
 92
       -2
340
0
 93
        0
 40
0.045
309
GRIDFORMAT_END
309
TABLEFORMAT_END
  1
CELLSTYLE_BEGIN
 90
        3
 91
        2
300
_DATA
309
CELLSTYLE_END
  0
CELLSTYLEMAP
  5
13E24
102
{ACAD_REACTORS
330
13D20
102
}
330
13D20
100
AcDbCellStyleMap
 90
        3
300
CELLSTYLE
  1
TABLEFORMAT_BEGIN
 90
        5
170
     1
 91
        0
 92
    32768
 62
   257
 93
        1
300
CONTENTFORMAT
  1
CONTENTFORMAT_BEGIN
 90
        0
 91
        0
 92
        4
 93
        0
300

 40
0.0
140
1.0
 94
        5
 62
     0
340
11
144
0.25
309
CONTENTFORMAT_END
171
     0
 94
        6
 95
        1
302
GRIDFORMAT
  1
GRIDFORMAT_BEGIN
 90
        0
 91
        1
 62
     0
 92
       -2
340
0
 93
        0
 40
0.045
309
GRIDFORMAT_END
 95
        2
302
GRIDFORMAT
  1
GRIDFORMAT_BEGIN
 90
        0
 91
        1
 62
     0
 92
       -2
340
0
 93
        0
 40
0.045
309
GRIDFORMAT_END
 95
        4
302
GRIDFORMAT
  1
GRIDFORMAT_BEGIN
 90
        0
 91
        1
 62
     0
 92
       -2
340
0
 93
        0
 40
0.045
309
GRIDFORMAT_END
 95
        8
302
GRIDFORMAT
  1
GRIDFORMAT_BEGIN
 90
        0
 91
        1
 62
     0
 92
       -2
340
0
 93
        0
 40
0.045
309
GRIDFORMAT_END
 95
       16
302
GRIDFORMAT
  1
GRIDFORMAT_BEGIN
 90
        0
 91
        1
 62
     0
 92
       -2
340
0
 93
        0
 40
0.045
309
GRIDFORMAT_END
 95
       32
302
GRIDFORMAT
  1
GRIDFORMAT_BEGIN
 90
        0
 91
        1
 62
     0
 92
       -2
340
0
 93
        0
 40
0.045
309
GRIDFORMAT_END
309
TABLEFORMAT_END
  1
CELLSTYLE_BEGIN
 90
        1
 91
        1
300
_TITLE
309
CELLSTYLE_END
300
CELLSTYLE
  1
TABLEFORMAT_BEGIN
 90
        5
170
     1
 91
        0
 92
        0
 62
   257
 93
        1
300
CONTENTFORMAT
  1
CONTENTFORMAT_BEGIN
 90
        0
 91
        0
 92
        4
 93
        0
300

 40
0.0
140
1.0
 94
        5
 62
     0
340
11
144
0.18
309
CONTENTFORMAT_END
171
     0
 94
        6
 95
        1
302
GRIDFORMAT
  1
GRIDFORMAT_BEGIN
 90
        0
 91
        1
 62
     0
 92
       -2
340
0
 93
        0
 40
0.045
309
GRIDFORMAT_END
 95
        2
302
GRIDFORMAT
  1
GRIDFORMAT_BEGIN
 90
        0
 91
        1
 62
     0
 92
       -2
340
0
 93
        0
 40
0.045
309
GRIDFORMAT_END
 95
        4
302
GRIDFORMAT
  1
GRIDFORMAT_BEGIN
 90
        0
 91
        1
 62
     0
 92
       -2
340
0
 93
        0
 40
0.045
309
GRIDFORMAT_END
 95
        8
302
GRIDFORMAT
  1
GRIDFORMAT_BEGIN
 90
        0
 91
        1
 62
     0
 92
       -2
340
0
 93
        0
 40
0.045
309
GRIDFORMAT_END
 95
       16
302
GRIDFORMAT
  1
GRIDFORMAT_BEGIN
 90
        0
 91
        1
 62
     0
 92
       -2
340
0
 93
        0
 40
0.045
309
GRIDFORMAT_END
 95
       32
302
GRIDFORMAT
  1
GRIDFORMAT_BEGIN
 90
        0
 91
        1
 62
     0
 92
       -2
340
0
 93
        0
 40
0.045
309
GRIDFORMAT_END
309
TABLEFORMAT_END
  1
CELLSTYLE_BEGIN
 90
        2
 91
        1
300
_HEADER
309
CELLSTYLE_END
300
CELLSTYLE
  1
TABLEFORMAT_BEGIN
 90
        5
170
     1
 91
        0
 92
        0
 62
   257
 93
        1
300
CONTENTFORMAT
  1
CONTENTFORMAT_BEGIN
 90
        0
 91
        0
 92
        4
 93
        0
300

 40
0.0
140
1.0
 94
        2
 62
     0
340
11
144
0.18
309
CONTENTFORMAT_END
171
     0
 94
        6
 95
        1
302
GRIDFORMAT
  1
GRIDFORMAT_BEGIN
 90
        0
 91
        1
 62
     0
 92
       -2
340
0
 93
        0
 40
0.045
309
GRIDFORMAT_END
 95
        2
302
GRIDFORMAT
  1
GRIDFORMAT_BEGIN
 90
        0
 91
        1
 62
     0
 92
       -2
340
0
 93
        0
 40
0.045
309
GRIDFORMAT_END
 95
        4
302
GRIDFORMAT
  1
GRIDFORMAT_BEGIN
 90
        0
 91
        1
 62
     0
 92
       -2
340
0
 93
        0
 40
0.045
309
GRIDFORMAT_END
 95
        8
302
GRIDFORMAT
  1
GRIDFORMAT_BEGIN
 90
        0
 91
        1
 62
     0
 92
       -2
340
0
 93
        0
 40
0.045
309
GRIDFORMAT_END
 95
       16
302
GRIDFORMAT
  1
GRIDFORMAT_BEGIN
 90
        0
 91
        1
 62
     0
 92
       -2
340
0
 93
        0
 40
0.045
309
GRIDFORMAT_END
 95
       32
302
GRIDFORMAT
  1
GRIDFORMAT_BEGIN
 90
        0
 91
        1
 62
     0
 92
       -2
340
0
 93
        0
 40
0.045
309
GRIDFORMAT_END
309
TABLEFORMAT_END
  1
CELLSTYLE_BEGIN
 90
        3
 91
        2
300
_DATA
309
CELLSTYLE_END
  0
XRECORD
  5
13E3D
102
{ACAD_REACTORS
330
13E3C
102
}
330
13E3C
100
AcDbXrecord
280
     1
102
RTVSPost2010Prop28
280
     1
102
RTVSPost2010PropOp28
 70
     1
102
RTVSPost2010Prop29
280
     1
102
RTVSPost2010PropOp29
 70
     1
102
RTVSPost2010Prop30
280
     0
102
RTVSPost2010PropOp30
 70
     1
102
RTVSPost2010Prop31
280
     0
102
RTVSPost2010PropOp31
 70
     1
102
RTVSPost2010Prop32
280
     0
102
RTVSPost2010PropOp32
 70
     1
102
RTVSPost2010Prop33
280
     0
102
RTVSPost2010PropOp33
 70
     1
102
RTVSPost2010Prop34
280
     0
102
RTVSPost2010PropOp34
 70
     1
102
RTVSPost2010Prop35
280
     0
102
RTVSPost2010PropOp35
 70
     1
102
RTVSPost2010Prop36
280
     0
102
RTVSPost2010PropOp36
 70
     1
102
RTVSPost2010Prop37
 90
       50
102
RTVSPost2010PropOp37
 70
     1
102
RTVSPost2010Prop38
140
0.0
102
RTVSPost2010PropOp38
 70
     1
102
RTVSPost2010Prop39
140
1.0
102
RTVSPost2010PropOp39
 70
     1
102
RTVSPost2010Prop40
 90
        0
102
RTVSPost2010PropOp40
 70
     1
102
RTVSPost2010Prop41ColorIndex
 90
       18
102
RTVSPost2010Prop41ColorRGB
 90
        0
102
RTVSPost2010PropOp41
 70
     1
102
RTVSPost2010Prop42
 90
       50
102
RTVSPost2010PropOp42
 70
     1
102
RTVSPost2010Prop43
 90
        3
102
RTVSPost2010PropOp43
 70
     1
102
RTVSPost2010Prop44ColorIndex
 90
        5
102
RTVSPost2010Prop44ColorRGB
 90
      255
102
RTVSPost2010PropOp44
 70
     1
102
RTVSPost2010Prop45
280
     0
102
RTVSPost2010PropOp45
 70
     1
102
RTVSPost2010Prop46
 90
       50
102
RTVSPost2010PropOp46
 70
     1
102
RTVSPost2010Prop47
 90
       50
102
RTVSPost2010PropOp47
 70
     1
102
RTVSPost2010Prop48
 90
       50
102
RTVSPost2010PropOp48
 70
     1
102
RTVSPost2010Prop49
280
     0
102
RTVSPost2010PropOp49
 70
     1
102
RTVSPost2010Prop50
 90
       50
102
RTVSPost2010PropOp50
 70
     1
102
RTVSPost2010Prop51ColorIndex
 90
      256
102
RTVSPost2010Prop51ColorRGB
 90
-16777216
102
RTVSPost2010PropOp51
 70
     0
102
RTVSPost2010Prop52
140
1.0
102
RTVSPost2010PropOp52
 70
     0
102
RTVSPost2010Prop53
 90
        2
102
RTVSPost2010PropOp53
 70
     1
102
RTVSPost2010Prop54
  1
strokes_ogs.tif
102
RTVSPost2010PropOp54
 70
     1
102
RTVSPost2010Prop55
280
     0
102
RTVSPost2010PropOp55
 70
     1
102
RTVSPost2010Prop56
140
1.0
102
RTVSPost2010PropOp56
 70
     1
102
RTVSPost2010Prop57
140
1.0
102
RTVSPost2010PropOp57
 70
     1
  0
XRECORD
  5
13E41
102
{ACAD_REACTORS
330
13E40
102
}
330
13E40
100
AcDbXrecord
280
     1
102
RTVSPost2010Prop28
280
     0
102
RTVSPost2010PropOp28
 70
     1
102
RTVSPost2010Prop29
280
     1
102
RTVSPost2010PropOp29
 70
     1
102
RTVSPost2010Prop30
280
     1
102
RTVSPost2010PropOp30
 70
     1
102
RTVSPost2010Prop31
280
     0
102
RTVSPost2010PropOp31
 70
     1
102
RTVSPost2010Prop32
280
     0
102
RTVSPost2010PropOp32
 70
     1
102
RTVSPost2010Prop33
280
     0
102
RTVSPost2010PropOp33
 70
     1
102
RTVSPost2010Prop34
280
     0
102
RTVSPost2010PropOp34
 70
     1
102
RTVSPost2010Prop35
280
     0
102
RTVSPost2010PropOp35
 70
     1
102
RTVSPost2010Prop36
280
     0
102
RTVSPost2010PropOp36
 70
     1
102
RTVSPost2010Prop37
 90
       50
102
RTVSPost2010PropOp37
 70
     1
102
RTVSPost2010Prop38
140
0.0
102
RTVSPost2010PropOp38
 70
     1
102
RTVSPost2010Prop39
140
1.0
102
RTVSPost2010PropOp39
 70
     1
102
RTVSPost2010Prop40
 90
        0
102
RTVSPost2010PropOp40
 70
     1
102
RTVSPost2010Prop41ColorIndex
 90
       18
102
RTVSPost2010Prop41ColorRGB
 90
        0
102
RTVSPost2010PropOp41
 70
     1
102
RTVSPost2010Prop42
 90
       50
102
RTVSPost2010PropOp42
 70
     1
102
RTVSPost2010Prop43
 90
        3
102
RTVSPost2010PropOp43
 70
     1
102
RTVSPost2010Prop44ColorIndex
 90
        5
102
RTVSPost2010Prop44ColorRGB
 90
      255
102
RTVSPost2010PropOp44
 70
     1
102
RTVSPost2010Prop45
280
     0
102
RTVSPost2010PropOp45
 70
     1
102
RTVSPost2010Prop46
 90
       50
102
RTVSPost2010PropOp46
 70
     1
102
RTVSPost2010Prop47
 90
       50
102
RTVSPost2010PropOp47
 70
     1
102
RTVSPost2010Prop48
 90
       50
102
RTVSPost2010PropOp48
 70
     1
102
RTVSPost2010Prop49
280
     0
102
RTVSPost2010PropOp49
 70
     1
102
RTVSPost2010Prop50
 90
       50
102
RTVSPost2010PropOp50
 70
     1
102
RTVSPost2010Prop51ColorIndex
 90
      256
102
RTVSPost2010Prop51ColorRGB
 90
-16777216
102
RTVSPost2010PropOp51
 70
     0
102
RTVSPost2010Prop52
140
1.0
102
RTVSPost2010PropOp52
 70
     0
102
RTVSPost2010Prop53
 90
        2
102
RTVSPost2010PropOp53
 70
     1
102
RTVSPost2010Prop54
  1
strokes_ogs.tif
102
RTVSPost2010PropOp54
 70
     1
102
RTVSPost2010Prop55
280
     0
102
RTVSPost2010PropOp55
 70
     1
102
RTVSPost2010Prop56
140
1.0
102
RTVSPost2010PropOp56
 70
     1
102
RTVSPost2010Prop57
140
1.0
102
RTVSPost2010PropOp57
 70
     1
  0
XRECORD
  5
13E3F
102
{ACAD_REACTORS
330
13E3E
102
}
330
13E3E
100
AcDbXrecord
280
     1
102
RTVSPost2010Prop28
280
     0
102
RTVSPost2010PropOp28
 70
     1
102
RTVSPost2010Prop29
280
     1
102
RTVSPost2010PropOp29
 70
     1
102
RTVSPost2010Prop30
280
     1
102
RTVSPost2010PropOp30
 70
     1
102
RTVSPost2010Prop31
280
     0
102
RTVSPost2010PropOp31
 70
     1
102
RTVSPost2010Prop32
280
     0
102
RTVSPost2010PropOp32
 70
     1
102
RTVSPost2010Prop33
280
     0
102
RTVSPost2010PropOp33
 70
     1
102
RTVSPost2010Prop34
280
     0
102
RTVSPost2010PropOp34
 70
     1
102
RTVSPost2010Prop35
280
     0
102
RTVSPost2010PropOp35
 70
     1
102
RTVSPost2010Prop36
280
     0
102
RTVSPost2010PropOp36
 70
     1
102
RTVSPost2010Prop37
 90
       50
102
RTVSPost2010PropOp37
 70
     1
102
RTVSPost2010Prop38
140
0.0
102
RTVSPost2010PropOp38
 70
     1
102
RTVSPost2010Prop39
140
1.0
102
RTVSPost2010PropOp39
 70
     1
102
RTVSPost2010Prop40
 90
        0
102
RTVSPost2010PropOp40
 70
     1
102
RTVSPost2010Prop41ColorIndex
 90
       18
102
RTVSPost2010Prop41ColorRGB
 90
        0
102
RTVSPost2010PropOp41
 70
     1
102
RTVSPost2010Prop42
 90
       50
102
RTVSPost2010PropOp42
 70
     1
102
RTVSPost2010Prop43
 90
        3
102
RTVSPost2010PropOp43
 70
     1
102
RTVSPost2010Prop44ColorIndex
 90
        5
102
RTVSPost2010Prop44ColorRGB
 90
      255
102
RTVSPost2010PropOp44
 70
     1
102
RTVSPost2010Prop45
280
     0
102
RTVSPost2010PropOp45
 70
     1
102
RTVSPost2010Prop46
 90
       50
102
RTVSPost2010PropOp46
 70
     1
102
RTVSPost2010Prop47
 90
       50
102
RTVSPost2010PropOp47
 70
     1
102
RTVSPost2010Prop48
 90
       50
102
RTVSPost2010PropOp48
 70
     1
102
RTVSPost2010Prop49
280
     0
102
RTVSPost2010PropOp49
 70
     1
102
RTVSPost2010Prop50
 90
       50
102
RTVSPost2010PropOp50
 70
     1
102
RTVSPost2010Prop51ColorIndex
 90
      256
102
RTVSPost2010Prop51ColorRGB
 90
-16777216
102
RTVSPost2010PropOp51
 70
     0
102
RTVSPost2010Prop52
140
1.0
102
RTVSPost2010PropOp52
 70
     0
102
RTVSPost2010Prop53
 90
        2
102
RTVSPost2010PropOp53
 70
     1
102
RTVSPost2010Prop54
  1
strokes_ogs.tif
102
RTVSPost2010PropOp54
 70
     1
102
RTVSPost2010Prop55
280
     0
102
RTVSPost2010PropOp55
 70
     1
102
RTVSPost2010Prop56
140
1.0
102
RTVSPost2010PropOp56
 70
     1
102
RTVSPost2010Prop57
140
1.0
102
RTVSPost2010PropOp57
 70
     1
  0
XRECORD
  5
13E3B
102
{ACAD_REACTORS
330
13E3A
102
}
330
13E3A
100
AcDbXrecord
280
     1
102
RTVSPost2010Prop28
280
     0
102
RTVSPost2010PropOp28
 70
     1
102
RTVSPost2010Prop29
280
     1
102
RTVSPost2010PropOp29
 70
     1
102
RTVSPost2010Prop30
280
     1
102
RTVSPost2010PropOp30
 70
     1
102
RTVSPost2010Prop31
280
     0
102
RTVSPost2010PropOp31
 70
     1
102
RTVSPost2010Prop32
280
     0
102
RTVSPost2010PropOp32
 70
     1
102
RTVSPost2010Prop33
280
     0
102
RTVSPost2010PropOp33
 70
     1
102
RTVSPost2010Prop34
280
     0
102
RTVSPost2010PropOp34
 70
     1
102
RTVSPost2010Prop35
280
     0
102
RTVSPost2010PropOp35
 70
     1
102
RTVSPost2010Prop36
280
     0
102
RTVSPost2010PropOp36
 70
     1
102
RTVSPost2010Prop37
 90
       50
102
RTVSPost2010PropOp37
 70
     1
102
RTVSPost2010Prop38
140
0.0
102
RTVSPost2010PropOp38
 70
     1
102
RTVSPost2010Prop39
140
1.0
102
RTVSPost2010PropOp39
 70
     1
102
RTVSPost2010Prop40
 90
        0
102
RTVSPost2010PropOp40
 70
     1
102
RTVSPost2010Prop41ColorIndex
 90
       18
102
RTVSPost2010Prop41ColorRGB
 90
        0
102
RTVSPost2010PropOp41
 70
     1
102
RTVSPost2010Prop42
 90
       50
102
RTVSPost2010PropOp42
 70
     1
102
RTVSPost2010Prop43
 90
        3
102
RTVSPost2010PropOp43
 70
     1
102
RTVSPost2010Prop44ColorIndex
 90
        5
102
RTVSPost2010Prop44ColorRGB
 90
      255
102
RTVSPost2010PropOp44
 70
     1
102
RTVSPost2010Prop45
280
     0
102
RTVSPost2010PropOp45
 70
     1
102
RTVSPost2010Prop46
 90
       50
102
RTVSPost2010PropOp46
 70
     1
102
RTVSPost2010Prop47
 90
       50
102
RTVSPost2010PropOp47
 70
     1
102
RTVSPost2010Prop48
 90
       50
102
RTVSPost2010PropOp48
 70
     1
102
RTVSPost2010Prop49
280
     0
102
RTVSPost2010PropOp49
 70
     1
102
RTVSPost2010Prop50
 90
       50
102
RTVSPost2010PropOp50
 70
     1
102
RTVSPost2010Prop51ColorIndex
 90
      256
102
RTVSPost2010Prop51ColorRGB
 90
-16777216
102
RTVSPost2010PropOp51
 70
     0
102
RTVSPost2010Prop52
140
1.0
102
RTVSPost2010PropOp52
 70
     0
102
RTVSPost2010Prop53
 90
        2
102
RTVSPost2010PropOp53
 70
     1
102
RTVSPost2010Prop54
  1
strokes_ogs.tif
102
RTVSPost2010PropOp54
 70
     1
102
RTVSPost2010Prop55
280
     0
102
RTVSPost2010PropOp55
 70
     1
102
RTVSPost2010Prop56
140
1.0
102
RTVSPost2010PropOp56
 70
     1
102
RTVSPost2010Prop57
140
1.0
102
RTVSPost2010PropOp57
 70
     1
  0
XRECORD
  5
13E49
102
{ACAD_REACTORS
330
13E48
102
}
330
13E48
100
AcDbXrecord
280
     1
102
RTVSPost2010Prop28
280
     0
102
RTVSPost2010PropOp28
 70
     1
102
RTVSPost2010Prop29
280
     1
102
RTVSPost2010PropOp29
 70
     1
102
RTVSPost2010Prop30
280
     1
102
RTVSPost2010PropOp30
 70
     1
102
RTVSPost2010Prop31
280
     0
102
RTVSPost2010PropOp31
 70
     1
102
RTVSPost2010Prop32
280
     0
102
RTVSPost2010PropOp32
 70
     1
102
RTVSPost2010Prop33
280
     0
102
RTVSPost2010PropOp33
 70
     1
102
RTVSPost2010Prop34
280
     0
102
RTVSPost2010PropOp34
 70
     1
102
RTVSPost2010Prop35
280
     0
102
RTVSPost2010PropOp35
 70
     1
102
RTVSPost2010Prop36
280
     0
102
RTVSPost2010PropOp36
 70
     1
102
RTVSPost2010Prop37
 90
       50
102
RTVSPost2010PropOp37
 70
     1
102
RTVSPost2010Prop38
140
0.0
102
RTVSPost2010PropOp38
 70
     1
102
RTVSPost2010Prop39
140
1.0
102
RTVSPost2010PropOp39
 70
     1
102
RTVSPost2010Prop40
 90
        0
102
RTVSPost2010PropOp40
 70
     1
102
RTVSPost2010Prop41ColorIndex
 90
       18
102
RTVSPost2010Prop41ColorRGB
 90
        0
102
RTVSPost2010PropOp41
 70
     1
102
RTVSPost2010Prop42
 90
       50
102
RTVSPost2010PropOp42
 70
     1
102
RTVSPost2010Prop43
 90
        3
102
RTVSPost2010PropOp43
 70
     1
102
RTVSPost2010Prop44ColorIndex
 90
        5
102
RTVSPost2010Prop44ColorRGB
 90
      255
102
RTVSPost2010PropOp44
 70
     1
102
RTVSPost2010Prop45
280
     0
102
RTVSPost2010PropOp45
 70
     1
102
RTVSPost2010Prop46
 90
       50
102
RTVSPost2010PropOp46
 70
     1
102
RTVSPost2010Prop47
 90
       50
102
RTVSPost2010PropOp47
 70
     1
102
RTVSPost2010Prop48
 90
       50
102
RTVSPost2010PropOp48
 70
     1
102
RTVSPost2010Prop49
280
     0
102
RTVSPost2010PropOp49
 70
     1
102
RTVSPost2010Prop50
 90
       50
102
RTVSPost2010PropOp50
 70
     1
102
RTVSPost2010Prop51ColorIndex
 90
      256
102
RTVSPost2010Prop51ColorRGB
 90
-16777216
102
RTVSPost2010PropOp51
 70
     0
102
RTVSPost2010Prop52
140
1.0
102
RTVSPost2010PropOp52
 70
     0
102
RTVSPost2010Prop53
 90
        2
102
RTVSPost2010PropOp53
 70
     1
102
RTVSPost2010Prop54
  1
strokes_ogs.tif
102
RTVSPost2010PropOp54
 70
     1
102
RTVSPost2010Prop55
280
     0
102
RTVSPost2010PropOp55
 70
     1
102
RTVSPost2010Prop56
140
1.0
102
RTVSPost2010PropOp56
 70
     1
102
RTVSPost2010Prop57
140
1.0
102
RTVSPost2010PropOp57
 70
     1
  0
XRECORD
  5
13E51
102
{ACAD_REACTORS
330
13E50
102
}
330
13E50
100
AcDbXrecord
280
     1
102
RTVSPost2010Prop28
280
     0
102
RTVSPost2010PropOp28
 70
     1
102
RTVSPost2010Prop29
280
     1
102
RTVSPost2010PropOp29
 70
     1
102
RTVSPost2010Prop30
280
     1
102
RTVSPost2010PropOp30
 70
     1
102
RTVSPost2010Prop31
280
     0
102
RTVSPost2010PropOp31
 70
     1
102
RTVSPost2010Prop32
280
     0
102
RTVSPost2010PropOp32
 70
     1
102
RTVSPost2010Prop33
280
     0
102
RTVSPost2010PropOp33
 70
     1
102
RTVSPost2010Prop34
280
     0
102
RTVSPost2010PropOp34
 70
     1
102
RTVSPost2010Prop35
280
     0
102
RTVSPost2010PropOp35
 70
     1
102
RTVSPost2010Prop36
280
     0
102
RTVSPost2010PropOp36
 70
     1
102
RTVSPost2010Prop37
 90
       50
102
RTVSPost2010PropOp37
 70
     1
102
RTVSPost2010Prop38
140
0.0
102
RTVSPost2010PropOp38
 70
     1
102
RTVSPost2010Prop39
140
1.0
102
RTVSPost2010PropOp39
 70
     1
102
RTVSPost2010Prop40
 90
        0
102
RTVSPost2010PropOp40
 70
     1
102
RTVSPost2010Prop41ColorIndex
 90
       18
102
RTVSPost2010Prop41ColorRGB
 90
        0
102
RTVSPost2010PropOp41
 70
     1
102
RTVSPost2010Prop42
 90
       50
102
RTVSPost2010PropOp42
 70
     1
102
RTVSPost2010Prop43
 90
        3
102
RTVSPost2010PropOp43
 70
     1
102
RTVSPost2010Prop44ColorIndex
 90
        5
102
RTVSPost2010Prop44ColorRGB
 90
      255
102
RTVSPost2010PropOp44
 70
     1
102
RTVSPost2010Prop45
280
     0
102
RTVSPost2010PropOp45
 70
     1
102
RTVSPost2010Prop46
 90
       50
102
RTVSPost2010PropOp46
 70
     1
102
RTVSPost2010Prop47
 90
       50
102
RTVSPost2010PropOp47
 70
     1
102
RTVSPost2010Prop48
 90
       50
102
RTVSPost2010PropOp48
 70
     1
102
RTVSPost2010Prop49
280
     0
102
RTVSPost2010PropOp49
 70
     1
102
RTVSPost2010Prop50
 90
       50
102
RTVSPost2010PropOp50
 70
     1
102
RTVSPost2010Prop51ColorIndex
 90
      256
102
RTVSPost2010Prop51ColorRGB
 90
-16777216
102
RTVSPost2010PropOp51
 70
     0
102
RTVSPost2010Prop52
140
1.0
102
RTVSPost2010PropOp52
 70
     0
102
RTVSPost2010Prop53
 90
        2
102
RTVSPost2010PropOp53
 70
     1
102
RTVSPost2010Prop54
  1
strokes_ogs.tif
102
RTVSPost2010PropOp54
 70
     1
102
RTVSPost2010Prop55
280
     0
102
RTVSPost2010PropOp55
 70
     1
102
RTVSPost2010Prop56
140
1.0
102
RTVSPost2010PropOp56
 70
     1
102
RTVSPost2010Prop57
140
1.0
102
RTVSPost2010PropOp57
 70
     1
  0
XRECORD
  5
13E43
102
{ACAD_REACTORS
330
13E42
102
}
330
13E42
100
AcDbXrecord
280
     1
102
RTVSPost2010Prop28
280
     0
102
RTVSPost2010PropOp28
 70
     1
102
RTVSPost2010Prop29
280
     1
102
RTVSPost2010PropOp29
 70
     1
102
RTVSPost2010Prop30
280
     1
102
RTVSPost2010PropOp30
 70
     1
102
RTVSPost2010Prop31
280
     0
102
RTVSPost2010PropOp31
 70
     1
102
RTVSPost2010Prop32
280
     0
102
RTVSPost2010PropOp32
 70
     1
102
RTVSPost2010Prop33
280
     0
102
RTVSPost2010PropOp33
 70
     1
102
RTVSPost2010Prop34
280
     0
102
RTVSPost2010PropOp34
 70
     1
102
RTVSPost2010Prop35
280
     0
102
RTVSPost2010PropOp35
 70
     1
102
RTVSPost2010Prop36
280
     0
102
RTVSPost2010PropOp36
 70
     1
102
RTVSPost2010Prop37
 90
       50
102
RTVSPost2010PropOp37
 70
     1
102
RTVSPost2010Prop38
140
0.0
102
RTVSPost2010PropOp38
 70
     1
102
RTVSPost2010Prop39
140
1.0
102
RTVSPost2010PropOp39
 70
     1
102
RTVSPost2010Prop40
 90
        0
102
RTVSPost2010PropOp40
 70
     1
102
RTVSPost2010Prop41ColorIndex
 90
       18
102
RTVSPost2010Prop41ColorRGB
 90
        0
102
RTVSPost2010PropOp41
 70
     1
102
RTVSPost2010Prop42
 90
       50
102
RTVSPost2010PropOp42
 70
     1
102
RTVSPost2010Prop43
 90
        3
102
RTVSPost2010PropOp43
 70
     1
102
RTVSPost2010Prop44ColorIndex
 90
        5
102
RTVSPost2010Prop44ColorRGB
 90
      255
102
RTVSPost2010PropOp44
 70
     1
102
RTVSPost2010Prop45
280
     0
102
RTVSPost2010PropOp45
 70
     1
102
RTVSPost2010Prop46
 90
       50
102
RTVSPost2010PropOp46
 70
     1
102
RTVSPost2010Prop47
 90
       50
102
RTVSPost2010PropOp47
 70
     1
102
RTVSPost2010Prop48
 90
       50
102
RTVSPost2010PropOp48
 70
     1
102
RTVSPost2010Prop49
280
     0
102
RTVSPost2010PropOp49
 70
     1
102
RTVSPost2010Prop50
 90
       50
102
RTVSPost2010PropOp50
 70
     1
102
RTVSPost2010Prop51ColorIndex
 90
      256
102
RTVSPost2010Prop51ColorRGB
 90
-16777216
102
RTVSPost2010PropOp51
 70
     0
102
RTVSPost2010Prop52
140
1.0
102
RTVSPost2010PropOp52
 70
     0
102
RTVSPost2010Prop53
 90
        2
102
RTVSPost2010PropOp53
 70
     1
102
RTVSPost2010Prop54
  1
strokes_ogs.tif
102
RTVSPost2010PropOp54
 70
     1
102
RTVSPost2010Prop55
280
     0
102
RTVSPost2010PropOp55
 70
     1
102
RTVSPost2010Prop56
140
1.0
102
RTVSPost2010PropOp56
 70
     1
102
RTVSPost2010Prop57
140
1.0
102
RTVSPost2010PropOp57
 70
     1
  0
XRECORD
  5
13E47
102
{ACAD_REACTORS
330
13E46
102
}
330
13E46
100
AcDbXrecord
280
     1
102
RTVSPost2010Prop28
280
     0
102
RTVSPost2010PropOp28
 70
     1
102
RTVSPost2010Prop29
280
     1
102
RTVSPost2010PropOp29
 70
     1
102
RTVSPost2010Prop30
280
     1
102
RTVSPost2010PropOp30
 70
     1
102
RTVSPost2010Prop31
280
     0
102
RTVSPost2010PropOp31
 70
     1
102
RTVSPost2010Prop32
280
     0
102
RTVSPost2010PropOp32
 70
     1
102
RTVSPost2010Prop33
280
     0
102
RTVSPost2010PropOp33
 70
     1
102
RTVSPost2010Prop34
280
     0
102
RTVSPost2010PropOp34
 70
     1
102
RTVSPost2010Prop35
280
     0
102
RTVSPost2010PropOp35
 70
     1
102
RTVSPost2010Prop36
280
     0
102
RTVSPost2010PropOp36
 70
     1
102
RTVSPost2010Prop37
 90
       50
102
RTVSPost2010PropOp37
 70
     1
102
RTVSPost2010Prop38
140
0.0
102
RTVSPost2010PropOp38
 70
     1
102
RTVSPost2010Prop39
140
1.0
102
RTVSPost2010PropOp39
 70
     1
102
RTVSPost2010Prop40
 90
        0
102
RTVSPost2010PropOp40
 70
     1
102
RTVSPost2010Prop41ColorIndex
 90
       18
102
RTVSPost2010Prop41ColorRGB
 90
        0
102
RTVSPost2010PropOp41
 70
     1
102
RTVSPost2010Prop42
 90
       50
102
RTVSPost2010PropOp42
 70
     1
102
RTVSPost2010Prop43
 90
        3
102
RTVSPost2010PropOp43
 70
     1
102
RTVSPost2010Prop44ColorIndex
 90
        5
102
RTVSPost2010Prop44ColorRGB
 90
      255
102
RTVSPost2010PropOp44
 70
     1
102
RTVSPost2010Prop45
280
     0
102
RTVSPost2010PropOp45
 70
     1
102
RTVSPost2010Prop46
 90
       50
102
RTVSPost2010PropOp46
 70
     1
102
RTVSPost2010Prop47
 90
       50
102
RTVSPost2010PropOp47
 70
     1
102
RTVSPost2010Prop48
 90
       50
102
RTVSPost2010PropOp48
 70
     1
102
RTVSPost2010Prop49
280
     0
102
RTVSPost2010PropOp49
 70
     1
102
RTVSPost2010Prop50
 90
       50
102
RTVSPost2010PropOp50
 70
     1
102
RTVSPost2010Prop51ColorIndex
 90
      256
102
RTVSPost2010Prop51ColorRGB
 90
-16777216
102
RTVSPost2010PropOp51
 70
     0
102
RTVSPost2010Prop52
140
1.0
102
RTVSPost2010PropOp52
 70
     0
102
RTVSPost2010Prop53
 90
        2
102
RTVSPost2010PropOp53
 70
     1
102
RTVSPost2010Prop54
  1
strokes_ogs.tif
102
RTVSPost2010PropOp54
 70
     1
102
RTVSPost2010Prop55
280
     0
102
RTVSPost2010PropOp55
 70
     1
102
RTVSPost2010Prop56
140
1.0
102
RTVSPost2010PropOp56
 70
     1
102
RTVSPost2010Prop57
140
1.0
102
RTVSPost2010PropOp57
 70
     1
  0
XRECORD
  5
13E57
102
{ACAD_REACTORS
330
13E56
102
}
330
13E56
100
AcDbXrecord
280
     1
102
RTVSPost2010Prop28
280
     0
102
RTVSPost2010PropOp28
 70
     1
102
RTVSPost2010Prop29
280
     1
102
RTVSPost2010PropOp29
 70
     1
102
RTVSPost2010Prop30
280
     1
102
RTVSPost2010PropOp30
 70
     1
102
RTVSPost2010Prop31
280
     0
102
RTVSPost2010PropOp31
 70
     1
102
RTVSPost2010Prop32
280
     0
102
RTVSPost2010PropOp32
 70
     1
102
RTVSPost2010Prop33
280
     0
102
RTVSPost2010PropOp33
 70
     1
102
RTVSPost2010Prop34
280
     0
102
RTVSPost2010PropOp34
 70
     1
102
RTVSPost2010Prop35
280
     0
102
RTVSPost2010PropOp35
 70
     1
102
RTVSPost2010Prop36
280
     0
102
RTVSPost2010PropOp36
 70
     1
102
RTVSPost2010Prop37
 90
       50
102
RTVSPost2010PropOp37
 70
     1
102
RTVSPost2010Prop38
140
0.0
102
RTVSPost2010PropOp38
 70
     1
102
RTVSPost2010Prop39
140
1.0
102
RTVSPost2010PropOp39
 70
     1
102
RTVSPost2010Prop40
 90
        0
102
RTVSPost2010PropOp40
 70
     1
102
RTVSPost2010Prop41ColorIndex
 90
       18
102
RTVSPost2010Prop41ColorRGB
 90
        0
102
RTVSPost2010PropOp41
 70
     1
102
RTVSPost2010Prop42
 90
       50
102
RTVSPost2010PropOp42
 70
     1
102
RTVSPost2010Prop43
 90
        3
102
RTVSPost2010PropOp43
 70
     1
102
RTVSPost2010Prop44ColorIndex
 90
        5
102
RTVSPost2010Prop44ColorRGB
 90
      255
102
RTVSPost2010PropOp44
 70
     1
102
RTVSPost2010Prop45
280
     0
102
RTVSPost2010PropOp45
 70
     1
102
RTVSPost2010Prop46
 90
       50
102
RTVSPost2010PropOp46
 70
     1
102
RTVSPost2010Prop47
 90
       50
102
RTVSPost2010PropOp47
 70
     1
102
RTVSPost2010Prop48
 90
       50
102
RTVSPost2010PropOp48
 70
     1
102
RTVSPost2010Prop49
280
     0
102
RTVSPost2010PropOp49
 70
     1
102
RTVSPost2010Prop50
 90
       50
102
RTVSPost2010PropOp50
 70
     1
102
RTVSPost2010Prop51ColorIndex
 90
      256
102
RTVSPost2010Prop51ColorRGB
 90
-16777216
102
RTVSPost2010PropOp51
 70
     0
102
RTVSPost2010Prop52
140
1.0
102
RTVSPost2010PropOp52
 70
     0
102
RTVSPost2010Prop53
 90
        2
102
RTVSPost2010PropOp53
 70
     1
102
RTVSPost2010Prop54
  1
strokes_ogs.tif
102
RTVSPost2010PropOp54
 70
     1
102
RTVSPost2010Prop55
280
     0
102
RTVSPost2010PropOp55
 70
     1
102
RTVSPost2010Prop56
140
1.0
102
RTVSPost2010PropOp56
 70
     1
102
RTVSPost2010Prop57
140
1.0
102
RTVSPost2010PropOp57
 70
     1
  0
XRECORD
  5
13E4F
102
{ACAD_REACTORS
330
13E4E
102
}
330
13E4E
100
AcDbXrecord
280
     1
102
RTVSPost2010Prop28
280
     0
102
RTVSPost2010PropOp28
 70
     1
102
RTVSPost2010Prop29
280
     1
102
RTVSPost2010PropOp29
 70
     1
102
RTVSPost2010Prop30
280
     1
102
RTVSPost2010PropOp30
 70
     1
102
RTVSPost2010Prop31
280
     0
102
RTVSPost2010PropOp31
 70
     1
102
RTVSPost2010Prop32
280
     0
102
RTVSPost2010PropOp32
 70
     1
102
RTVSPost2010Prop33
280
     0
102
RTVSPost2010PropOp33
 70
     1
102
RTVSPost2010Prop34
280
     0
102
RTVSPost2010PropOp34
 70
     1
102
RTVSPost2010Prop35
280
     0
102
RTVSPost2010PropOp35
 70
     1
102
RTVSPost2010Prop36
280
     0
102
RTVSPost2010PropOp36
 70
     1
102
RTVSPost2010Prop37
 90
       50
102
RTVSPost2010PropOp37
 70
     1
102
RTVSPost2010Prop38
140
0.0
102
RTVSPost2010PropOp38
 70
     1
102
RTVSPost2010Prop39
140
1.0
102
RTVSPost2010PropOp39
 70
     1
102
RTVSPost2010Prop40
 90
        0
102
RTVSPost2010PropOp40
 70
     1
102
RTVSPost2010Prop41ColorIndex
 90
       18
102
RTVSPost2010Prop41ColorRGB
 90
        0
102
RTVSPost2010PropOp41
 70
     1
102
RTVSPost2010Prop42
 90
       50
102
RTVSPost2010PropOp42
 70
     1
102
RTVSPost2010Prop43
 90
        3
102
RTVSPost2010PropOp43
 70
     1
102
RTVSPost2010Prop44ColorIndex
 90
        5
102
RTVSPost2010Prop44ColorRGB
 90
      255
102
RTVSPost2010PropOp44
 70
     1
102
RTVSPost2010Prop45
280
     0
102
RTVSPost2010PropOp45
 70
     1
102
RTVSPost2010Prop46
 90
       50
102
RTVSPost2010PropOp46
 70
     1
102
RTVSPost2010Prop47
 90
       50
102
RTVSPost2010PropOp47
 70
     1
102
RTVSPost2010Prop48
 90
       50
102
RTVSPost2010PropOp48
 70
     1
102
RTVSPost2010Prop49
280
     0
102
RTVSPost2010PropOp49
 70
     1
102
RTVSPost2010Prop50
 90
       50
102
RTVSPost2010PropOp50
 70
     1
102
RTVSPost2010Prop51ColorIndex
 90
      256
102
RTVSPost2010Prop51ColorRGB
 90
-16777216
102
RTVSPost2010PropOp51
 70
     0
102
RTVSPost2010Prop52
140
1.0
102
RTVSPost2010PropOp52
 70
     0
102
RTVSPost2010Prop53
 90
        2
102
RTVSPost2010PropOp53
 70
     1
102
RTVSPost2010Prop54
  1
strokes_ogs.tif
102
RTVSPost2010PropOp54
 70
     1
102
RTVSPost2010Prop55
280
     0
102
RTVSPost2010PropOp55
 70
     1
102
RTVSPost2010Prop56
140
1.0
102
RTVSPost2010PropOp56
 70
     1
102
RTVSPost2010Prop57
140
1.0
102
RTVSPost2010PropOp57
 70
     1
  0
XRECORD
  5
13E33
102
{ACAD_REACTORS
330
13E32
102
}
330
13E32
100
AcDbXrecord
280
     1
102
RTVSPost2010Prop28
280
     0
102
RTVSPost2010PropOp28
 70
     1
102
RTVSPost2010Prop29
280
     1
102
RTVSPost2010PropOp29
 70
     1
102
RTVSPost2010Prop30
280
     1
102
RTVSPost2010PropOp30
 70
     1
102
RTVSPost2010Prop31
280
     0
102
RTVSPost2010PropOp31
 70
     1
102
RTVSPost2010Prop32
280
     0
102
RTVSPost2010PropOp32
 70
     1
102
RTVSPost2010Prop33
280
     0
102
RTVSPost2010PropOp33
 70
     1
102
RTVSPost2010Prop34
280
     0
102
RTVSPost2010PropOp34
 70
     1
102
RTVSPost2010Prop35
280
     0
102
RTVSPost2010PropOp35
 70
     1
102
RTVSPost2010Prop36
280
     0
102
RTVSPost2010PropOp36
 70
     1
102
RTVSPost2010Prop37
 90
       50
102
RTVSPost2010PropOp37
 70
     1
102
RTVSPost2010Prop38
140
0.0
102
RTVSPost2010PropOp38
 70
     1
102
RTVSPost2010Prop39
140
1.0
102
RTVSPost2010PropOp39
 70
     1
102
RTVSPost2010Prop40
 90
        0
102
RTVSPost2010PropOp40
 70
     1
102
RTVSPost2010Prop41ColorIndex
 90
       18
102
RTVSPost2010Prop41ColorRGB
 90
        0
102
RTVSPost2010PropOp41
 70
     1
102
RTVSPost2010Prop42
 90
       50
102
RTVSPost2010PropOp42
 70
     1
102
RTVSPost2010Prop43
 90
        3
102
RTVSPost2010PropOp43
 70
     1
102
RTVSPost2010Prop44ColorIndex
 90
        5
102
RTVSPost2010Prop44ColorRGB
 90
      255
102
RTVSPost2010PropOp44
 70
     1
102
RTVSPost2010Prop45
280
     0
102
RTVSPost2010PropOp45
 70
     1
102
RTVSPost2010Prop46
 90
       50
102
RTVSPost2010PropOp46
 70
     1
102
RTVSPost2010Prop47
 90
       50
102
RTVSPost2010PropOp47
 70
     1
102
RTVSPost2010Prop48
 90
       50
102
RTVSPost2010PropOp48
 70
     1
102
RTVSPost2010Prop49
280
     0
102
RTVSPost2010PropOp49
 70
     1
102
RTVSPost2010Prop50
 90
       50
102
RTVSPost2010PropOp50
 70
     1
102
RTVSPost2010Prop51ColorIndex
 90
      256
102
RTVSPost2010Prop51ColorRGB
 90
-16777216
102
RTVSPost2010PropOp51
 70
     0
102
RTVSPost2010Prop52
140
1.0
102
RTVSPost2010PropOp52
 70
     0
102
RTVSPost2010Prop53
 90
        2
102
RTVSPost2010PropOp53
 70
     1
102
RTVSPost2010Prop54
  1
strokes_ogs.tif
102
RTVSPost2010PropOp54
 70
     1
102
RTVSPost2010Prop55
280
     0
102
RTVSPost2010PropOp55
 70
     1
102
RTVSPost2010Prop56
140
1.0
102
RTVSPost2010PropOp56
 70
     1
102
RTVSPost2010Prop57
140
1.0
102
RTVSPost2010PropOp57
 70
     1
  0
XRECORD
  5
13E35
102
{ACAD_REACTORS
330
13E34
102
}
330
13E34
100
AcDbXrecord
280
     1
102
RTVSPost2010Prop28
280
     0
102
RTVSPost2010PropOp28
 70
     1
102
RTVSPost2010Prop29
280
     1
102
RTVSPost2010PropOp29
 70
     1
102
RTVSPost2010Prop30
280
     1
102
RTVSPost2010PropOp30
 70
     1
102
RTVSPost2010Prop31
280
     0
102
RTVSPost2010PropOp31
 70
     1
102
RTVSPost2010Prop32
280
     0
102
RTVSPost2010PropOp32
 70
     1
102
RTVSPost2010Prop33
280
     0
102
RTVSPost2010PropOp33
 70
     1
102
RTVSPost2010Prop34
280
     0
102
RTVSPost2010PropOp34
 70
     1
102
RTVSPost2010Prop35
280
     0
102
RTVSPost2010PropOp35
 70
     1
102
RTVSPost2010Prop36
280
     0
102
RTVSPost2010PropOp36
 70
     1
102
RTVSPost2010Prop37
 90
       50
102
RTVSPost2010PropOp37
 70
     1
102
RTVSPost2010Prop38
140
0.0
102
RTVSPost2010PropOp38
 70
     1
102
RTVSPost2010Prop39
140
1.0
102
RTVSPost2010PropOp39
 70
     1
102
RTVSPost2010Prop40
 90
        0
102
RTVSPost2010PropOp40
 70
     1
102
RTVSPost2010Prop41ColorIndex
 90
       18
102
RTVSPost2010Prop41ColorRGB
 90
        0
102
RTVSPost2010PropOp41
 70
     1
102
RTVSPost2010Prop42
 90
       50
102
RTVSPost2010PropOp42
 70
     1
102
RTVSPost2010Prop43
 90
        3
102
RTVSPost2010PropOp43
 70
     1
102
RTVSPost2010Prop44ColorIndex
 90
        5
102
RTVSPost2010Prop44ColorRGB
 90
      255
102
RTVSPost2010PropOp44
 70
     1
102
RTVSPost2010Prop45
280
     0
102
RTVSPost2010PropOp45
 70
     1
102
RTVSPost2010Prop46
 90
       50
102
RTVSPost2010PropOp46
 70
     1
102
RTVSPost2010Prop47
 90
       50
102
RTVSPost2010PropOp47
 70
     1
102
RTVSPost2010Prop48
 90
       50
102
RTVSPost2010PropOp48
 70
     1
102
RTVSPost2010Prop49
280
     0
102
RTVSPost2010PropOp49
 70
     1
102
RTVSPost2010Prop50
 90
       50
102
RTVSPost2010PropOp50
 70
     1
102
RTVSPost2010Prop51ColorIndex
 90
      256
102
RTVSPost2010Prop51ColorRGB
 90
-16777216
102
RTVSPost2010PropOp51
 70
     0
102
RTVSPost2010Prop52
140
1.0
102
RTVSPost2010PropOp52
 70
     0
102
RTVSPost2010Prop53
 90
        2
102
RTVSPost2010PropOp53
 70
     1
102
RTVSPost2010Prop54
  1
strokes_ogs.tif
102
RTVSPost2010PropOp54
 70
     1
102
RTVSPost2010Prop55
280
     0
102
RTVSPost2010PropOp55
 70
     1
102
RTVSPost2010Prop56
140
1.0
102
RTVSPost2010PropOp56
 70
     1
102
RTVSPost2010Prop57
140
1.0
102
RTVSPost2010PropOp57
 70
     1
  0
XRECORD
  5
13E37
102
{ACAD_REACTORS
330
13E36
102
}
330
13E36
100
AcDbXrecord
280
     1
102
RTVSPost2010Prop28
280
     0
102
RTVSPost2010PropOp28
 70
     1
102
RTVSPost2010Prop29
280
     1
102
RTVSPost2010PropOp29
 70
     1
102
RTVSPost2010Prop30
280
     1
102
RTVSPost2010PropOp30
 70
     1
102
RTVSPost2010Prop31
280
     0
102
RTVSPost2010PropOp31
 70
     1
102
RTVSPost2010Prop32
280
     0
102
RTVSPost2010PropOp32
 70
     1
102
RTVSPost2010Prop33
280
     0
102
RTVSPost2010PropOp33
 70
     1
102
RTVSPost2010Prop34
280
     0
102
RTVSPost2010PropOp34
 70
     1
102
RTVSPost2010Prop35
280
     0
102
RTVSPost2010PropOp35
 70
     1
102
RTVSPost2010Prop36
280
     0
102
RTVSPost2010PropOp36
 70
     1
102
RTVSPost2010Prop37
 90
       50
102
RTVSPost2010PropOp37
 70
     1
102
RTVSPost2010Prop38
140
0.0
102
RTVSPost2010PropOp38
 70
     1
102
RTVSPost2010Prop39
140
1.0
102
RTVSPost2010PropOp39
 70
     1
102
RTVSPost2010Prop40
 90
        0
102
RTVSPost2010PropOp40
 70
     1
102
RTVSPost2010Prop41ColorIndex
 90
       18
102
RTVSPost2010Prop41ColorRGB
 90
        0
102
RTVSPost2010PropOp41
 70
     1
102
RTVSPost2010Prop42
 90
       50
102
RTVSPost2010PropOp42
 70
     1
102
RTVSPost2010Prop43
 90
        3
102
RTVSPost2010PropOp43
 70
     1
102
RTVSPost2010Prop44ColorIndex
 90
        5
102
RTVSPost2010Prop44ColorRGB
 90
      255
102
RTVSPost2010PropOp44
 70
     1
102
RTVSPost2010Prop45
280
     0
102
RTVSPost2010PropOp45
 70
     1
102
RTVSPost2010Prop46
 90
       50
102
RTVSPost2010PropOp46
 70
     1
102
RTVSPost2010Prop47
 90
       50
102
RTVSPost2010PropOp47
 70
     1
102
RTVSPost2010Prop48
 90
       50
102
RTVSPost2010PropOp48
 70
     1
102
RTVSPost2010Prop49
280
     0
102
RTVSPost2010PropOp49
 70
     1
102
RTVSPost2010Prop50
 90
       50
102
RTVSPost2010PropOp50
 70
     1
102
RTVSPost2010Prop51ColorIndex
 90
      256
102
RTVSPost2010Prop51ColorRGB
 90
-16777216
102
RTVSPost2010PropOp51
 70
     0
102
RTVSPost2010Prop52
140
1.0
102
RTVSPost2010PropOp52
 70
     0
102
RTVSPost2010Prop53
 90
        2
102
RTVSPost2010PropOp53
 70
     1
102
RTVSPost2010Prop54
  1
strokes_ogs.tif
102
RTVSPost2010PropOp54
 70
     1
102
RTVSPost2010Prop55
280
     0
102
RTVSPost2010PropOp55
 70
     1
102
RTVSPost2010Prop56
140
1.0
102
RTVSPost2010PropOp56
 70
     1
102
RTVSPost2010Prop57
140
1.0
102
RTVSPost2010PropOp57
 70
     1
  0
XRECORD
  5
13E39
102
{ACAD_REACTORS
330
13E38
102
}
330
13E38
100
AcDbXrecord
280
     1
102
RTVSPost2010Prop28
280
     0
102
RTVSPost2010PropOp28
 70
     1
102
RTVSPost2010Prop29
280
     1
102
RTVSPost2010PropOp29
 70
     1
102
RTVSPost2010Prop30
280
     1
102
RTVSPost2010PropOp30
 70
     1
102
RTVSPost2010Prop31
280
     0
102
RTVSPost2010PropOp31
 70
     1
102
RTVSPost2010Prop32
280
     0
102
RTVSPost2010PropOp32
 70
     1
102
RTVSPost2010Prop33
280
     0
102
RTVSPost2010PropOp33
 70
     1
102
RTVSPost2010Prop34
280
     0
102
RTVSPost2010PropOp34
 70
     1
102
RTVSPost2010Prop35
280
     0
102
RTVSPost2010PropOp35
 70
     1
102
RTVSPost2010Prop36
280
     0
102
RTVSPost2010PropOp36
 70
     1
102
RTVSPost2010Prop37
 90
       50
102
RTVSPost2010PropOp37
 70
     1
102
RTVSPost2010Prop38
140
0.0
102
RTVSPost2010PropOp38
 70
     1
102
RTVSPost2010Prop39
140
1.0
102
RTVSPost2010PropOp39
 70
     1
102
RTVSPost2010Prop40
 90
        0
102
RTVSPost2010PropOp40
 70
     1
102
RTVSPost2010Prop41ColorIndex
 90
       18
102
RTVSPost2010Prop41ColorRGB
 90
        0
102
RTVSPost2010PropOp41
 70
     1
102
RTVSPost2010Prop42
 90
       50
102
RTVSPost2010PropOp42
 70
     1
102
RTVSPost2010Prop43
 90
        3
102
RTVSPost2010PropOp43
 70
     1
102
RTVSPost2010Prop44ColorIndex
 90
        5
102
RTVSPost2010Prop44ColorRGB
 90
      255
102
RTVSPost2010PropOp44
 70
     1
102
RTVSPost2010Prop45
280
     0
102
RTVSPost2010PropOp45
 70
     1
102
RTVSPost2010Prop46
 90
       50
102
RTVSPost2010PropOp46
 70
     1
102
RTVSPost2010Prop47
 90
       50
102
RTVSPost2010PropOp47
 70
     1
102
RTVSPost2010Prop48
 90
       50
102
RTVSPost2010PropOp48
 70
     1
102
RTVSPost2010Prop49
280
     0
102
RTVSPost2010PropOp49
 70
     1
102
RTVSPost2010Prop50
 90
       50
102
RTVSPost2010PropOp50
 70
     1
102
RTVSPost2010Prop51ColorIndex
 90
      256
102
RTVSPost2010Prop51ColorRGB
 90
-16777216
102
RTVSPost2010PropOp51
 70
     0
102
RTVSPost2010Prop52
140
1.0
102
RTVSPost2010PropOp52
 70
     0
102
RTVSPost2010Prop53
 90
        2
102
RTVSPost2010PropOp53
 70
     1
102
RTVSPost2010Prop54
  1
strokes_ogs.tif
102
RTVSPost2010PropOp54
 70
     1
102
RTVSPost2010Prop55
280
     0
102
RTVSPost2010PropOp55
 70
     1
102
RTVSPost2010Prop56
140
1.0
102
RTVSPost2010PropOp56
 70
     1
102
RTVSPost2010Prop57
140
1.0
102
RTVSPost2010PropOp57
 70
     1
  0
XRECORD
  5
13E5B
102
{ACAD_REACTORS
330
13E5A
102
}
330
13E5A
100
AcDbXrecord
280
     1
102
RTVSPost2010Prop28
280
     0
102
RTVSPost2010PropOp28
 70
     1
102
RTVSPost2010Prop29
280
     1
102
RTVSPost2010PropOp29
 70
     1
102
RTVSPost2010Prop30
280
     1
102
RTVSPost2010PropOp30
 70
     1
102
RTVSPost2010Prop31
280
     0
102
RTVSPost2010PropOp31
 70
     1
102
RTVSPost2010Prop32
280
     0
102
RTVSPost2010PropOp32
 70
     1
102
RTVSPost2010Prop33
280
     0
102
RTVSPost2010PropOp33
 70
     1
102
RTVSPost2010Prop34
280
     0
102
RTVSPost2010PropOp34
 70
     1
102
RTVSPost2010Prop35
280
     0
102
RTVSPost2010PropOp35
 70
     1
102
RTVSPost2010Prop36
280
     0
102
RTVSPost2010PropOp36
 70
     1
102
RTVSPost2010Prop37
 90
       50
102
RTVSPost2010PropOp37
 70
     1
102
RTVSPost2010Prop38
140
0.0
102
RTVSPost2010PropOp38
 70
     1
102
RTVSPost2010Prop39
140
1.0
102
RTVSPost2010PropOp39
 70
     1
102
RTVSPost2010Prop40
 90
        0
102
RTVSPost2010PropOp40
 70
     1
102
RTVSPost2010Prop41ColorIndex
 90
       18
102
RTVSPost2010Prop41ColorRGB
 90
        0
102
RTVSPost2010PropOp41
 70
     1
102
RTVSPost2010Prop42
 90
       50
102
RTVSPost2010PropOp42
 70
     1
102
RTVSPost2010Prop43
 90
        3
102
RTVSPost2010PropOp43
 70
     1
102
RTVSPost2010Prop44ColorIndex
 90
        5
102
RTVSPost2010Prop44ColorRGB
 90
      255
102
RTVSPost2010PropOp44
 70
     1
102
RTVSPost2010Prop45
280
     0
102
RTVSPost2010PropOp45
 70
     1
102
RTVSPost2010Prop46
 90
       50
102
RTVSPost2010PropOp46
 70
     1
102
RTVSPost2010Prop47
 90
       50
102
RTVSPost2010PropOp47
 70
     1
102
RTVSPost2010Prop48
 90
       50
102
RTVSPost2010PropOp48
 70
     1
102
RTVSPost2010Prop49
280
     0
102
RTVSPost2010PropOp49
 70
     1
102
RTVSPost2010Prop50
 90
       50
102
RTVSPost2010PropOp50
 70
     1
102
RTVSPost2010Prop51ColorIndex
 90
      256
102
RTVSPost2010Prop51ColorRGB
 90
-16777216
102
RTVSPost2010PropOp51
 70
     0
102
RTVSPost2010Prop52
140
1.0
102
RTVSPost2010PropOp52
 70
     0
102
RTVSPost2010Prop53
 90
        2
102
RTVSPost2010PropOp53
 70
     1
102
RTVSPost2010Prop54
  1
strokes_ogs.tif
102
RTVSPost2010PropOp54
 70
     1
102
RTVSPost2010Prop55
280
     0
102
RTVSPost2010PropOp55
 70
     1
102
RTVSPost2010Prop56
140
1.0
102
RTVSPost2010PropOp56
 70
     1
102
RTVSPost2010Prop57
140
1.0
102
RTVSPost2010PropOp57
 70
     1
  0
XRECORD
  5
13E53
102
{ACAD_REACTORS
330
13E52
102
}
330
13E52
100
AcDbXrecord
280
     1
102
RTVSPost2010Prop28
280
     0
102
RTVSPost2010PropOp28
 70
     1
102
RTVSPost2010Prop29
280
     1
102
RTVSPost2010PropOp29
 70
     1
102
RTVSPost2010Prop30
280
     1
102
RTVSPost2010PropOp30
 70
     1
102
RTVSPost2010Prop31
280
     0
102
RTVSPost2010PropOp31
 70
     1
102
RTVSPost2010Prop32
280
     0
102
RTVSPost2010PropOp32
 70
     1
102
RTVSPost2010Prop33
280
     0
102
RTVSPost2010PropOp33
 70
     1
102
RTVSPost2010Prop34
280
     0
102
RTVSPost2010PropOp34
 70
     1
102
RTVSPost2010Prop35
280
     0
102
RTVSPost2010PropOp35
 70
     1
102
RTVSPost2010Prop36
280
     0
102
RTVSPost2010PropOp36
 70
     1
102
RTVSPost2010Prop37
 90
       50
102
RTVSPost2010PropOp37
 70
     1
102
RTVSPost2010Prop38
140
0.0
102
RTVSPost2010PropOp38
 70
     1
102
RTVSPost2010Prop39
140
1.0
102
RTVSPost2010PropOp39
 70
     1
102
RTVSPost2010Prop40
 90
        0
102
RTVSPost2010PropOp40
 70
     1
102
RTVSPost2010Prop41ColorIndex
 90
       18
102
RTVSPost2010Prop41ColorRGB
 90
        0
102
RTVSPost2010PropOp41
 70
     1
102
RTVSPost2010Prop42
 90
       50
102
RTVSPost2010PropOp42
 70
     1
102
RTVSPost2010Prop43
 90
        3
102
RTVSPost2010PropOp43
 70
     1
102
RTVSPost2010Prop44ColorIndex
 90
        5
102
RTVSPost2010Prop44ColorRGB
 90
      255
102
RTVSPost2010PropOp44
 70
     1
102
RTVSPost2010Prop45
280
     0
102
RTVSPost2010PropOp45
 70
     1
102
RTVSPost2010Prop46
 90
       50
102
RTVSPost2010PropOp46
 70
     1
102
RTVSPost2010Prop47
 90
       50
102
RTVSPost2010PropOp47
 70
     1
102
RTVSPost2010Prop48
 90
       50
102
RTVSPost2010PropOp48
 70
     1
102
RTVSPost2010Prop49
280
     0
102
RTVSPost2010PropOp49
 70
     1
102
RTVSPost2010Prop50
 90
       50
102
RTVSPost2010PropOp50
 70
     1
102
RTVSPost2010Prop51ColorIndex
 90
      256
102
RTVSPost2010Prop51ColorRGB
 90
-16777216
102
RTVSPost2010PropOp51
 70
     0
102
RTVSPost2010Prop52
140
1.0
102
RTVSPost2010PropOp52
 70
     0
102
RTVSPost2010Prop53
 90
        2
102
RTVSPost2010PropOp53
 70
     1
102
RTVSPost2010Prop54
  1
strokes_ogs.tif
102
RTVSPost2010PropOp54
 70
     1
102
RTVSPost2010Prop55
280
     0
102
RTVSPost2010PropOp55
 70
     1
102
RTVSPost2010Prop56
140
1.0
102
RTVSPost2010PropOp56
 70
     1
102
RTVSPost2010Prop57
140
1.0
102
RTVSPost2010PropOp57
 70
     1
  0
XRECORD
  5
13E4D
102
{ACAD_REACTORS
330
13E4C
102
}
330
13E4C
100
AcDbXrecord
280
     1
102
RTVSPost2010Prop28
280
     0
102
RTVSPost2010PropOp28
 70
     1
102
RTVSPost2010Prop29
280
     1
102
RTVSPost2010PropOp29
 70
     1
102
RTVSPost2010Prop30
280
     1
102
RTVSPost2010PropOp30
 70
     1
102
RTVSPost2010Prop31
280
     0
102
RTVSPost2010PropOp31
 70
     1
102
RTVSPost2010Prop32
280
     0
102
RTVSPost2010PropOp32
 70
     1
102
RTVSPost2010Prop33
280
     0
102
RTVSPost2010PropOp33
 70
     1
102
RTVSPost2010Prop34
280
     0
102
RTVSPost2010PropOp34
 70
     1
102
RTVSPost2010Prop35
280
     0
102
RTVSPost2010PropOp35
 70
     1
102
RTVSPost2010Prop36
280
     0
102
RTVSPost2010PropOp36
 70
     1
102
RTVSPost2010Prop37
 90
       50
102
RTVSPost2010PropOp37
 70
     1
102
RTVSPost2010Prop38
140
0.0
102
RTVSPost2010PropOp38
 70
     1
102
RTVSPost2010Prop39
140
1.0
102
RTVSPost2010PropOp39
 70
     1
102
RTVSPost2010Prop40
 90
        0
102
RTVSPost2010PropOp40
 70
     1
102
RTVSPost2010Prop41ColorIndex
 90
       18
102
RTVSPost2010Prop41ColorRGB
 90
        0
102
RTVSPost2010PropOp41
 70
     1
102
RTVSPost2010Prop42
 90
       50
102
RTVSPost2010PropOp42
 70
     1
102
RTVSPost2010Prop43
 90
        3
102
RTVSPost2010PropOp43
 70
     1
102
RTVSPost2010Prop44ColorIndex
 90
        5
102
RTVSPost2010Prop44ColorRGB
 90
      255
102
RTVSPost2010PropOp44
 70
     1
102
RTVSPost2010Prop45
280
     0
102
RTVSPost2010PropOp45
 70
     1
102
RTVSPost2010Prop46
 90
       50
102
RTVSPost2010PropOp46
 70
     1
102
RTVSPost2010Prop47
 90
       50
102
RTVSPost2010PropOp47
 70
     1
102
RTVSPost2010Prop48
 90
       50
102
RTVSPost2010PropOp48
 70
     1
102
RTVSPost2010Prop49
280
     0
102
RTVSPost2010PropOp49
 70
     1
102
RTVSPost2010Prop50
 90
       50
102
RTVSPost2010PropOp50
 70
     1
102
RTVSPost2010Prop51ColorIndex
 90
      256
102
RTVSPost2010Prop51ColorRGB
 90
-16777216
102
RTVSPost2010PropOp51
 70
     0
102
RTVSPost2010Prop52
140
1.0
102
RTVSPost2010PropOp52
 70
     0
102
RTVSPost2010Prop53
 90
        2
102
RTVSPost2010PropOp53
 70
     1
102
RTVSPost2010Prop54
  1
strokes_ogs.tif
102
RTVSPost2010PropOp54
 70
     1
102
RTVSPost2010Prop55
280
     0
102
RTVSPost2010PropOp55
 70
     1
102
RTVSPost2010Prop56
140
1.0
102
RTVSPost2010PropOp56
 70
     1
102
RTVSPost2010Prop57
140
1.0
102
RTVSPost2010PropOp57
 70
     1
  0
XRECORD
  5
13E55
102
{ACAD_REACTORS
330
13E54
102
}
330
13E54
100
AcDbXrecord
280
     1
102
RTVSPost2010Prop28
280
     0
102
RTVSPost2010PropOp28
 70
     1
102
RTVSPost2010Prop29
280
     1
102
RTVSPost2010PropOp29
 70
     1
102
RTVSPost2010Prop30
280
     1
102
RTVSPost2010PropOp30
 70
     1
102
RTVSPost2010Prop31
280
     0
102
RTVSPost2010PropOp31
 70
     1
102
RTVSPost2010Prop32
280
     0
102
RTVSPost2010PropOp32
 70
     1
102
RTVSPost2010Prop33
280
     0
102
RTVSPost2010PropOp33
 70
     1
102
RTVSPost2010Prop34
280
     0
102
RTVSPost2010PropOp34
 70
     1
102
RTVSPost2010Prop35
280
     0
102
RTVSPost2010PropOp35
 70
     1
102
RTVSPost2010Prop36
280
     0
102
RTVSPost2010PropOp36
 70
     1
102
RTVSPost2010Prop37
 90
       50
102
RTVSPost2010PropOp37
 70
     1
102
RTVSPost2010Prop38
140
0.0
102
RTVSPost2010PropOp38
 70
     1
102
RTVSPost2010Prop39
140
1.0
102
RTVSPost2010PropOp39
 70
     1
102
RTVSPost2010Prop40
 90
        0
102
RTVSPost2010PropOp40
 70
     1
102
RTVSPost2010Prop41ColorIndex
 90
       18
102
RTVSPost2010Prop41ColorRGB
 90
        0
102
RTVSPost2010PropOp41
 70
     1
102
RTVSPost2010Prop42
 90
       50
102
RTVSPost2010PropOp42
 70
     1
102
RTVSPost2010Prop43
 90
        3
102
RTVSPost2010PropOp43
 70
     1
102
RTVSPost2010Prop44ColorIndex
 90
        5
102
RTVSPost2010Prop44ColorRGB
 90
      255
102
RTVSPost2010PropOp44
 70
     1
102
RTVSPost2010Prop45
280
     0
102
RTVSPost2010PropOp45
 70
     1
102
RTVSPost2010Prop46
 90
       50
102
RTVSPost2010PropOp46
 70
     1
102
RTVSPost2010Prop47
 90
       50
102
RTVSPost2010PropOp47
 70
     1
102
RTVSPost2010Prop48
 90
       50
102
RTVSPost2010PropOp48
 70
     1
102
RTVSPost2010Prop49
280
     0
102
RTVSPost2010PropOp49
 70
     1
102
RTVSPost2010Prop50
 90
       50
102
RTVSPost2010PropOp50
 70
     1
102
RTVSPost2010Prop51ColorIndex
 90
      256
102
RTVSPost2010Prop51ColorRGB
 90
-16777216
102
RTVSPost2010PropOp51
 70
     0
102
RTVSPost2010Prop52
140
1.0
102
RTVSPost2010PropOp52
 70
     0
102
RTVSPost2010Prop53
 90
        2
102
RTVSPost2010PropOp53
 70
     1
102
RTVSPost2010Prop54
  1
strokes_ogs.tif
102
RTVSPost2010PropOp54
 70
     1
102
RTVSPost2010Prop55
280
     0
102
RTVSPost2010PropOp55
 70
     1
102
RTVSPost2010Prop56
140
1.0
102
RTVSPost2010PropOp56
 70
     1
102
RTVSPost2010Prop57
140
1.0
102
RTVSPost2010PropOp57
 70
     1
  0
XRECORD
  5
13E45
102
{ACAD_REACTORS
330
13E44
102
}
330
13E44
100
AcDbXrecord
280
     1
102
RTVSPost2010Prop28
280
     0
102
RTVSPost2010PropOp28
 70
     1
102
RTVSPost2010Prop29
280
     1
102
RTVSPost2010PropOp29
 70
     1
102
RTVSPost2010Prop30
280
     1
102
RTVSPost2010PropOp30
 70
     1
102
RTVSPost2010Prop31
280
     0
102
RTVSPost2010PropOp31
 70
     1
102
RTVSPost2010Prop32
280
     0
102
RTVSPost2010PropOp32
 70
     1
102
RTVSPost2010Prop33
280
     0
102
RTVSPost2010PropOp33
 70
     1
102
RTVSPost2010Prop34
280
     0
102
RTVSPost2010PropOp34
 70
     1
102
RTVSPost2010Prop35
280
     0
102
RTVSPost2010PropOp35
 70
     1
102
RTVSPost2010Prop36
280
     0
102
RTVSPost2010PropOp36
 70
     1
102
RTVSPost2010Prop37
 90
       50
102
RTVSPost2010PropOp37
 70
     1
102
RTVSPost2010Prop38
140
0.0
102
RTVSPost2010PropOp38
 70
     1
102
RTVSPost2010Prop39
140
1.0
102
RTVSPost2010PropOp39
 70
     1
102
RTVSPost2010Prop40
 90
        0
102
RTVSPost2010PropOp40
 70
     1
102
RTVSPost2010Prop41ColorIndex
 90
       18
102
RTVSPost2010Prop41ColorRGB
 90
        0
102
RTVSPost2010PropOp41
 70
     1
102
RTVSPost2010Prop42
 90
       50
102
RTVSPost2010PropOp42
 70
     1
102
RTVSPost2010Prop43
 90
        3
102
RTVSPost2010PropOp43
 70
     1
102
RTVSPost2010Prop44ColorIndex
 90
        5
102
RTVSPost2010Prop44ColorRGB
 90
      255
102
RTVSPost2010PropOp44
 70
     1
102
RTVSPost2010Prop45
280
     0
102
RTVSPost2010PropOp45
 70
     1
102
RTVSPost2010Prop46
 90
       50
102
RTVSPost2010PropOp46
 70
     1
102
RTVSPost2010Prop47
 90
       50
102
RTVSPost2010PropOp47
 70
     1
102
RTVSPost2010Prop48
 90
       50
102
RTVSPost2010PropOp48
 70
     1
102
RTVSPost2010Prop49
280
     0
102
RTVSPost2010PropOp49
 70
     1
102
RTVSPost2010Prop50
 90
       50
102
RTVSPost2010PropOp50
 70
     1
102
RTVSPost2010Prop51ColorIndex
 90
      256
102
RTVSPost2010Prop51ColorRGB
 90
-16777216
102
RTVSPost2010PropOp51
 70
     0
102
RTVSPost2010Prop52
140
1.0
102
RTVSPost2010PropOp52
 70
     0
102
RTVSPost2010Prop53
 90
        2
102
RTVSPost2010PropOp53
 70
     1
102
RTVSPost2010Prop54
  1
strokes_ogs.tif
102
RTVSPost2010PropOp54
 70
     1
102
RTVSPost2010Prop55
280
     0
102
RTVSPost2010PropOp55
 70
     1
102
RTVSPost2010Prop56
140
1.0
102
RTVSPost2010PropOp56
 70
     1
102
RTVSPost2010Prop57
140
1.0
102
RTVSPost2010PropOp57
 70
     1
  0
XRECORD
  5
13E65
102
{ACAD_REACTORS
330
13E64
102
}
330
13E64
100
AcDbXrecord
280
     1
102
RTVSPost2010Prop28
280
     0
102
RTVSPost2010PropOp28
 70
     1
102
RTVSPost2010Prop29
280
     1
102
RTVSPost2010PropOp29
 70
     1
102
RTVSPost2010Prop30
280
     1
102
RTVSPost2010PropOp30
 70
     1
102
RTVSPost2010Prop31
280
     0
102
RTVSPost2010PropOp31
 70
     1
102
RTVSPost2010Prop32
280
     0
102
RTVSPost2010PropOp32
 70
     1
102
RTVSPost2010Prop33
280
     0
102
RTVSPost2010PropOp33
 70
     1
102
RTVSPost2010Prop34
280
     0
102
RTVSPost2010PropOp34
 70
     1
102
RTVSPost2010Prop35
280
     0
102
RTVSPost2010PropOp35
 70
     1
102
RTVSPost2010Prop36
280
     0
102
RTVSPost2010PropOp36
 70
     1
102
RTVSPost2010Prop37
 90
       50
102
RTVSPost2010PropOp37
 70
     1
102
RTVSPost2010Prop38
140
0.0
102
RTVSPost2010PropOp38
 70
     1
102
RTVSPost2010Prop39
140
1.0
102
RTVSPost2010PropOp39
 70
     1
102
RTVSPost2010Prop40
 90
        0
102
RTVSPost2010PropOp40
 70
     1
102
RTVSPost2010Prop41ColorIndex
 90
       18
102
RTVSPost2010Prop41ColorRGB
 90
        0
102
RTVSPost2010PropOp41
 70
     1
102
RTVSPost2010Prop42
 90
       50
102
RTVSPost2010PropOp42
 70
     1
102
RTVSPost2010Prop43
 90
        3
102
RTVSPost2010PropOp43
 70
     1
102
RTVSPost2010Prop44ColorIndex
 90
        5
102
RTVSPost2010Prop44ColorRGB
 90
      255
102
RTVSPost2010PropOp44
 70
     1
102
RTVSPost2010Prop45
280
     0
102
RTVSPost2010PropOp45
 70
     1
102
RTVSPost2010Prop46
 90
       50
102
RTVSPost2010PropOp46
 70
     1
102
RTVSPost2010Prop47
 90
       50
102
RTVSPost2010PropOp47
 70
     1
102
RTVSPost2010Prop48
 90
       50
102
RTVSPost2010PropOp48
 70
     1
102
RTVSPost2010Prop49
280
     0
102
RTVSPost2010PropOp49
 70
     1
102
RTVSPost2010Prop50
 90
       50
102
RTVSPost2010PropOp50
 70
     1
102
RTVSPost2010Prop51ColorIndex
 90
      256
102
RTVSPost2010Prop51ColorRGB
 90
-16777216
102
RTVSPost2010PropOp51
 70
     0
102
RTVSPost2010Prop52
140
1.0
102
RTVSPost2010PropOp52
 70
     0
102
RTVSPost2010Prop53
 90
        2
102
RTVSPost2010PropOp53
 70
     1
102
RTVSPost2010Prop54
  1
strokes_ogs.tif
102
RTVSPost2010PropOp54
 70
     1
102
RTVSPost2010Prop55
280
     0
102
RTVSPost2010PropOp55
 70
     1
102
RTVSPost2010Prop56
140
1.0
102
RTVSPost2010PropOp56
 70
     1
102
RTVSPost2010Prop57
140
1.0
102
RTVSPost2010PropOp57
 70
     1
  0
XRECORD
  5
13E63
102
{ACAD_REACTORS
330
13E62
102
}
330
13E62
100
AcDbXrecord
280
     1
102
RTVSPost2010Prop28
280
     0
102
RTVSPost2010PropOp28
 70
     1
102
RTVSPost2010Prop29
280
     1
102
RTVSPost2010PropOp29
 70
     1
102
RTVSPost2010Prop30
280
     1
102
RTVSPost2010PropOp30
 70
     1
102
RTVSPost2010Prop31
280
     0
102
RTVSPost2010PropOp31
 70
     1
102
RTVSPost2010Prop32
280
     0
102
RTVSPost2010PropOp32
 70
     1
102
RTVSPost2010Prop33
280
     0
102
RTVSPost2010PropOp33
 70
     1
102
RTVSPost2010Prop34
280
     0
102
RTVSPost2010PropOp34
 70
     1
102
RTVSPost2010Prop35
280
     0
102
RTVSPost2010PropOp35
 70
     1
102
RTVSPost2010Prop36
280
     0
102
RTVSPost2010PropOp36
 70
     1
102
RTVSPost2010Prop37
 90
       50
102
RTVSPost2010PropOp37
 70
     1
102
RTVSPost2010Prop38
140
0.0
102
RTVSPost2010PropOp38
 70
     1
102
RTVSPost2010Prop39
140
1.0
102
RTVSPost2010PropOp39
 70
     1
102
RTVSPost2010Prop40
 90
        0
102
RTVSPost2010PropOp40
 70
     1
102
RTVSPost2010Prop41ColorIndex
 90
       18
102
RTVSPost2010Prop41ColorRGB
 90
        0
102
RTVSPost2010PropOp41
 70
     1
102
RTVSPost2010Prop42
 90
       50
102
RTVSPost2010PropOp42
 70
     1
102
RTVSPost2010Prop43
 90
        3
102
RTVSPost2010PropOp43
 70
     1
102
RTVSPost2010Prop44ColorIndex
 90
        5
102
RTVSPost2010Prop44ColorRGB
 90
      255
102
RTVSPost2010PropOp44
 70
     1
102
RTVSPost2010Prop45
280
     0
102
RTVSPost2010PropOp45
 70
     1
102
RTVSPost2010Prop46
 90
       50
102
RTVSPost2010PropOp46
 70
     1
102
RTVSPost2010Prop47
 90
       50
102
RTVSPost2010PropOp47
 70
     1
102
RTVSPost2010Prop48
 90
       50
102
RTVSPost2010PropOp48
 70
     1
102
RTVSPost2010Prop49
280
     0
102
RTVSPost2010PropOp49
 70
     1
102
RTVSPost2010Prop50
 90
       50
102
RTVSPost2010PropOp50
 70
     1
102
RTVSPost2010Prop51ColorIndex
 90
      256
102
RTVSPost2010Prop51ColorRGB
 90
-16777216
102
RTVSPost2010PropOp51
 70
     0
102
RTVSPost2010Prop52
140
1.0
102
RTVSPost2010PropOp52
 70
     0
102
RTVSPost2010Prop53
 90
        2
102
RTVSPost2010PropOp53
 70
     1
102
RTVSPost2010Prop54
  1
strokes_ogs.tif
102
RTVSPost2010PropOp54
 70
     1
102
RTVSPost2010Prop55
280
     0
102
RTVSPost2010PropOp55
 70
     1
102
RTVSPost2010Prop56
140
1.0
102
RTVSPost2010PropOp56
 70
     1
102
RTVSPost2010Prop57
140
1.0
102
RTVSPost2010PropOp57
 70
     1
  0
XRECORD
  5
13E5D
102
{ACAD_REACTORS
330
13E5C
102
}
330
13E5C
100
AcDbXrecord
280
     1
102
RTVSPost2010Prop28
280
     0
102
RTVSPost2010PropOp28
 70
     1
102
RTVSPost2010Prop29
280
     1
102
RTVSPost2010PropOp29
 70
     1
102
RTVSPost2010Prop30
280
     1
102
RTVSPost2010PropOp30
 70
     1
102
RTVSPost2010Prop31
280
     0
102
RTVSPost2010PropOp31
 70
     1
102
RTVSPost2010Prop32
280
     0
102
RTVSPost2010PropOp32
 70
     1
102
RTVSPost2010Prop33
280
     0
102
RTVSPost2010PropOp33
 70
     1
102
RTVSPost2010Prop34
280
     0
102
RTVSPost2010PropOp34
 70
     1
102
RTVSPost2010Prop35
280
     0
102
RTVSPost2010PropOp35
 70
     1
102
RTVSPost2010Prop36
280
     0
102
RTVSPost2010PropOp36
 70
     1
102
RTVSPost2010Prop37
 90
       50
102
RTVSPost2010PropOp37
 70
     1
102
RTVSPost2010Prop38
140
0.0
102
RTVSPost2010PropOp38
 70
     1
102
RTVSPost2010Prop39
140
1.0
102
RTVSPost2010PropOp39
 70
     1
102
RTVSPost2010Prop40
 90
        0
102
RTVSPost2010PropOp40
 70
     1
102
RTVSPost2010Prop41ColorIndex
 90
       18
102
RTVSPost2010Prop41ColorRGB
 90
        0
102
RTVSPost2010PropOp41
 70
     1
102
RTVSPost2010Prop42
 90
       50
102
RTVSPost2010PropOp42
 70
     1
102
RTVSPost2010Prop43
 90
        3
102
RTVSPost2010PropOp43
 70
     1
102
RTVSPost2010Prop44ColorIndex
 90
        5
102
RTVSPost2010Prop44ColorRGB
 90
      255
102
RTVSPost2010PropOp44
 70
     1
102
RTVSPost2010Prop45
280
     0
102
RTVSPost2010PropOp45
 70
     1
102
RTVSPost2010Prop46
 90
       50
102
RTVSPost2010PropOp46
 70
     1
102
RTVSPost2010Prop47
 90
       50
102
RTVSPost2010PropOp47
 70
     1
102
RTVSPost2010Prop48
 90
       50
102
RTVSPost2010PropOp48
 70
     1
102
RTVSPost2010Prop49
280
     0
102
RTVSPost2010PropOp49
 70
     1
102
RTVSPost2010Prop50
 90
       50
102
RTVSPost2010PropOp50
 70
     1
102
RTVSPost2010Prop51ColorIndex
 90
      256
102
RTVSPost2010Prop51ColorRGB
 90
-16777216
102
RTVSPost2010PropOp51
 70
     0
102
RTVSPost2010Prop52
140
1.0
102
RTVSPost2010PropOp52
 70
     0
102
RTVSPost2010Prop53
 90
        2
102
RTVSPost2010PropOp53
 70
     1
102
RTVSPost2010Prop54
  1
strokes_ogs.tif
102
RTVSPost2010PropOp54
 70
     1
102
RTVSPost2010Prop55
280
     0
102
RTVSPost2010PropOp55
 70
     1
102
RTVSPost2010Prop56
140
1.0
102
RTVSPost2010PropOp56
 70
     1
102
RTVSPost2010Prop57
140
1.0
102
RTVSPost2010PropOp57
 70
     1
  0
XRECORD
  5
13E5F
102
{ACAD_REACTORS
330
13E5E
102
}
330
13E5E
100
AcDbXrecord
280
     1
102
RTVSPost2010Prop28
280
     0
102
RTVSPost2010PropOp28
 70
     1
102
RTVSPost2010Prop29
280
     1
102
RTVSPost2010PropOp29
 70
     1
102
RTVSPost2010Prop30
280
     1
102
RTVSPost2010PropOp30
 70
     1
102
RTVSPost2010Prop31
280
     0
102
RTVSPost2010PropOp31
 70
     1
102
RTVSPost2010Prop32
280
     0
102
RTVSPost2010PropOp32
 70
     1
102
RTVSPost2010Prop33
280
     0
102
RTVSPost2010PropOp33
 70
     1
102
RTVSPost2010Prop34
280
     0
102
RTVSPost2010PropOp34
 70
     1
102
RTVSPost2010Prop35
280
     0
102
RTVSPost2010PropOp35
 70
     1
102
RTVSPost2010Prop36
280
     0
102
RTVSPost2010PropOp36
 70
     1
102
RTVSPost2010Prop37
 90
       50
102
RTVSPost2010PropOp37
 70
     1
102
RTVSPost2010Prop38
140
0.0
102
RTVSPost2010PropOp38
 70
     1
102
RTVSPost2010Prop39
140
1.0
102
RTVSPost2010PropOp39
 70
     1
102
RTVSPost2010Prop40
 90
        0
102
RTVSPost2010PropOp40
 70
     1
102
RTVSPost2010Prop41ColorIndex
 90
       18
102
RTVSPost2010Prop41ColorRGB
 90
        0
102
RTVSPost2010PropOp41
 70
     1
102
RTVSPost2010Prop42
 90
       50
102
RTVSPost2010PropOp42
 70
     1
102
RTVSPost2010Prop43
 90
        3
102
RTVSPost2010PropOp43
 70
     1
102
RTVSPost2010Prop44ColorIndex
 90
        5
102
RTVSPost2010Prop44ColorRGB
 90
      255
102
RTVSPost2010PropOp44
 70
     1
102
RTVSPost2010Prop45
280
     0
102
RTVSPost2010PropOp45
 70
     1
102
RTVSPost2010Prop46
 90
       50
102
RTVSPost2010PropOp46
 70
     1
102
RTVSPost2010Prop47
 90
       50
102
RTVSPost2010PropOp47
 70
     1
102
RTVSPost2010Prop48
 90
       50
102
RTVSPost2010PropOp48
 70
     1
102
RTVSPost2010Prop49
280
     0
102
RTVSPost2010PropOp49
 70
     1
102
RTVSPost2010Prop50
 90
       50
102
RTVSPost2010PropOp50
 70
     1
102
RTVSPost2010Prop51ColorIndex
 90
      256
102
RTVSPost2010Prop51ColorRGB
 90
-16777216
102
RTVSPost2010PropOp51
 70
     0
102
RTVSPost2010Prop52
140
1.0
102
RTVSPost2010PropOp52
 70
     0
102
RTVSPost2010Prop53
 90
        2
102
RTVSPost2010PropOp53
 70
     1
102
RTVSPost2010Prop54
  1
strokes_ogs.tif
102
RTVSPost2010PropOp54
 70
     1
102
RTVSPost2010Prop55
280
     0
102
RTVSPost2010PropOp55
 70
     1
102
RTVSPost2010Prop56
140
1.0
102
RTVSPost2010PropOp56
 70
     1
102
RTVSPost2010Prop57
140
1.0
102
RTVSPost2010PropOp57
 70
     1
  0
XRECORD
  5
13E4B
102
{ACAD_REACTORS
330
13E4A
102
}
330
13E4A
100
AcDbXrecord
280
     1
102
RTVSPost2010Prop28
280
     0
102
RTVSPost2010PropOp28
 70
     1
102
RTVSPost2010Prop29
280
     1
102
RTVSPost2010PropOp29
 70
     1
102
RTVSPost2010Prop30
280
     1
102
RTVSPost2010PropOp30
 70
     1
102
RTVSPost2010Prop31
280
     0
102
RTVSPost2010PropOp31
 70
     1
102
RTVSPost2010Prop32
280
     0
102
RTVSPost2010PropOp32
 70
     1
102
RTVSPost2010Prop33
280
     0
102
RTVSPost2010PropOp33
 70
     1
102
RTVSPost2010Prop34
280
     0
102
RTVSPost2010PropOp34
 70
     1
102
RTVSPost2010Prop35
280
     0
102
RTVSPost2010PropOp35
 70
     1
102
RTVSPost2010Prop36
280
     0
102
RTVSPost2010PropOp36
 70
     1
102
RTVSPost2010Prop37
 90
       50
102
RTVSPost2010PropOp37
 70
     1
102
RTVSPost2010Prop38
140
0.0
102
RTVSPost2010PropOp38
 70
     1
102
RTVSPost2010Prop39
140
1.0
102
RTVSPost2010PropOp39
 70
     1
102
RTVSPost2010Prop40
 90
        0
102
RTVSPost2010PropOp40
 70
     1
102
RTVSPost2010Prop41ColorIndex
 90
       18
102
RTVSPost2010Prop41ColorRGB
 90
        0
102
RTVSPost2010PropOp41
 70
     1
102
RTVSPost2010Prop42
 90
       50
102
RTVSPost2010PropOp42
 70
     1
102
RTVSPost2010Prop43
 90
        3
102
RTVSPost2010PropOp43
 70
     1
102
RTVSPost2010Prop44ColorIndex
 90
        5
102
RTVSPost2010Prop44ColorRGB
 90
      255
102
RTVSPost2010PropOp44
 70
     1
102
RTVSPost2010Prop45
280
     0
102
RTVSPost2010PropOp45
 70
     1
102
RTVSPost2010Prop46
 90
       50
102
RTVSPost2010PropOp46
 70
     1
102
RTVSPost2010Prop47
 90
       50
102
RTVSPost2010PropOp47
 70
     1
102
RTVSPost2010Prop48
 90
       50
102
RTVSPost2010PropOp48
 70
     1
102
RTVSPost2010Prop49
280
     0
102
RTVSPost2010PropOp49
 70
     1
102
RTVSPost2010Prop50
 90
       50
102
RTVSPost2010PropOp50
 70
     1
102
RTVSPost2010Prop51ColorIndex
 90
      256
102
RTVSPost2010Prop51ColorRGB
 90
-16777216
102
RTVSPost2010PropOp51
 70
     0
102
RTVSPost2010Prop52
140
1.0
102
RTVSPost2010PropOp52
 70
     0
102
RTVSPost2010Prop53
 90
        2
102
RTVSPost2010PropOp53
 70
     1
102
RTVSPost2010Prop54
  1
strokes_ogs.tif
102
RTVSPost2010PropOp54
 70
     1
102
RTVSPost2010Prop55
280
     0
102
RTVSPost2010PropOp55
 70
     1
102
RTVSPost2010Prop56
140
1.0
102
RTVSPost2010PropOp56
 70
     1
102
RTVSPost2010Prop57
140
1.0
102
RTVSPost2010PropOp57
 70
     1
  0
XRECORD
  5
13E59
102
{ACAD_REACTORS
330
13E58
102
}
330
13E58
100
AcDbXrecord
280
     1
102
RTVSPost2010Prop28
280
     0
102
RTVSPost2010PropOp28
 70
     1
102
RTVSPost2010Prop29
280
     1
102
RTVSPost2010PropOp29
 70
     1
102
RTVSPost2010Prop30
280
     1
102
RTVSPost2010PropOp30
 70
     1
102
RTVSPost2010Prop31
280
     0
102
RTVSPost2010PropOp31
 70
     1
102
RTVSPost2010Prop32
280
     0
102
RTVSPost2010PropOp32
 70
     1
102
RTVSPost2010Prop33
280
     0
102
RTVSPost2010PropOp33
 70
     1
102
RTVSPost2010Prop34
280
     0
102
RTVSPost2010PropOp34
 70
     1
102
RTVSPost2010Prop35
280
     0
102
RTVSPost2010PropOp35
 70
     1
102
RTVSPost2010Prop36
280
     0
102
RTVSPost2010PropOp36
 70
     1
102
RTVSPost2010Prop37
 90
       50
102
RTVSPost2010PropOp37
 70
     1
102
RTVSPost2010Prop38
140
0.0
102
RTVSPost2010PropOp38
 70
     1
102
RTVSPost2010Prop39
140
1.0
102
RTVSPost2010PropOp39
 70
     1
102
RTVSPost2010Prop40
 90
        0
102
RTVSPost2010PropOp40
 70
     1
102
RTVSPost2010Prop41ColorIndex
 90
       18
102
RTVSPost2010Prop41ColorRGB
 90
        0
102
RTVSPost2010PropOp41
 70
     1
102
RTVSPost2010Prop42
 90
       50
102
RTVSPost2010PropOp42
 70
     1
102
RTVSPost2010Prop43
 90
        3
102
RTVSPost2010PropOp43
 70
     1
102
RTVSPost2010Prop44ColorIndex
 90
        5
102
RTVSPost2010Prop44ColorRGB
 90
      255
102
RTVSPost2010PropOp44
 70
     1
102
RTVSPost2010Prop45
280
     0
102
RTVSPost2010PropOp45
 70
     1
102
RTVSPost2010Prop46
 90
       50
102
RTVSPost2010PropOp46
 70
     1
102
RTVSPost2010Prop47
 90
       50
102
RTVSPost2010PropOp47
 70
     1
102
RTVSPost2010Prop48
 90
       50
102
RTVSPost2010PropOp48
 70
     1
102
RTVSPost2010Prop49
280
     0
102
RTVSPost2010PropOp49
 70
     1
102
RTVSPost2010Prop50
 90
       50
102
RTVSPost2010PropOp50
 70
     1
102
RTVSPost2010Prop51ColorIndex
 90
      256
102
RTVSPost2010Prop51ColorRGB
 90
-16777216
102
RTVSPost2010PropOp51
 70
     0
102
RTVSPost2010Prop52
140
1.0
102
RTVSPost2010PropOp52
 70
     0
102
RTVSPost2010Prop53
 90
        2
102
RTVSPost2010PropOp53
 70
     1
102
RTVSPost2010Prop54
  1
strokes_ogs.tif
102
RTVSPost2010PropOp54
 70
     1
102
RTVSPost2010Prop55
280
     0
102
RTVSPost2010PropOp55
 70
     1
102
RTVSPost2010Prop56
140
1.0
102
RTVSPost2010PropOp56
 70
     1
102
RTVSPost2010Prop57
140
1.0
102
RTVSPost2010PropOp57
 70
     1
  0
XRECORD
  5
13E61
102
{ACAD_REACTORS
330
13E60
102
}
330
13E60
100
AcDbXrecord
280
     1
102
RTVSPost2010Prop28
280
     0
102
RTVSPost2010PropOp28
 70
     1
102
RTVSPost2010Prop29
280
     1
102
RTVSPost2010PropOp29
 70
     1
102
RTVSPost2010Prop30
280
     1
102
RTVSPost2010PropOp30
 70
     1
102
RTVSPost2010Prop31
280
     0
102
RTVSPost2010PropOp31
 70
     1
102
RTVSPost2010Prop32
280
     0
102
RTVSPost2010PropOp32
 70
     1
102
RTVSPost2010Prop33
280
     0
102
RTVSPost2010PropOp33
 70
     1
102
RTVSPost2010Prop34
280
     0
102
RTVSPost2010PropOp34
 70
     1
102
RTVSPost2010Prop35
280
     0
102
RTVSPost2010PropOp35
 70
     1
102
RTVSPost2010Prop36
280
     0
102
RTVSPost2010PropOp36
 70
     1
102
RTVSPost2010Prop37
 90
       50
102
RTVSPost2010PropOp37
 70
     1
102
RTVSPost2010Prop38
140
0.0
102
RTVSPost2010PropOp38
 70
     1
102
RTVSPost2010Prop39
140
1.0
102
RTVSPost2010PropOp39
 70
     1
102
RTVSPost2010Prop40
 90
        0
102
RTVSPost2010PropOp40
 70
     1
102
RTVSPost2010Prop41ColorIndex
 90
       18
102
RTVSPost2010Prop41ColorRGB
 90
        0
102
RTVSPost2010PropOp41
 70
     1
102
RTVSPost2010Prop42
 90
       50
102
RTVSPost2010PropOp42
 70
     1
102
RTVSPost2010Prop43
 90
        3
102
RTVSPost2010PropOp43
 70
     1
102
RTVSPost2010Prop44ColorIndex
 90
        5
102
RTVSPost2010Prop44ColorRGB
 90
      255
102
RTVSPost2010PropOp44
 70
     1
102
RTVSPost2010Prop45
280
     0
102
RTVSPost2010PropOp45
 70
     1
102
RTVSPost2010Prop46
 90
       50
102
RTVSPost2010PropOp46
 70
     1
102
RTVSPost2010Prop47
 90
       50
102
RTVSPost2010PropOp47
 70
     1
102
RTVSPost2010Prop48
 90
       50
102
RTVSPost2010PropOp48
 70
     1
102
RTVSPost2010Prop49
280
     0
102
RTVSPost2010PropOp49
 70
     1
102
RTVSPost2010Prop50
 90
       50
102
RTVSPost2010PropOp50
 70
     1
102
RTVSPost2010Prop51ColorIndex
 90
      256
102
RTVSPost2010Prop51ColorRGB
 90
-16777216
102
RTVSPost2010PropOp51
 70
     0
102
RTVSPost2010Prop52
140
1.0
102
RTVSPost2010PropOp52
 70
     0
102
RTVSPost2010Prop53
 90
        2
102
RTVSPost2010PropOp53
 70
     1
102
RTVSPost2010Prop54
  1
strokes_ogs.tif
102
RTVSPost2010PropOp54
 70
     1
102
RTVSPost2010Prop55
280
     0
102
RTVSPost2010PropOp55
 70
     1
102
RTVSPost2010Prop56
140
1.0
102
RTVSPost2010PropOp56
 70
     1
102
RTVSPost2010Prop57
140
1.0
102
RTVSPost2010PropOp57
 70
     1
  0
ENDSEC
  0
EOF
